  0
SECTION
  2
HEADER
  9
$ACADVER
  1
AC1018
  9
$ACADMAINTVER
 70
     0
  9
$DWGCODEPAGE
  3
ANSI_1252
  9
$INSBASE
 10
0.0
 20
0.0
 30
0.0
  9
$EXTMIN
 10
-0.5
 20
-0.5
 30
-0.5
  9
$EXTMAX
 10
5.0
 20
5.0
 30
5.0
  9
$LIMMIN
 10
-0.5
 20
-0.5
  9
$LIMMAX
 10
5.0
 20
5.0
  9
$ORTHOMODE
 70
     0
  9
$REGENMODE
 70
     1
  9
$FILLMODE
 70
     1
  9
$QTEXTMODE
 70
     0
  9
$MIRRTEXT
 70
     1
  9
$LTSCALE
 40
1.0
  9
$ATTMODE
 70
     1
  9
$TEXTSIZE
 40
0.2
  9
$TRACEWID
 40
0.05
  9
$TEXTSTYLE
  7
Standard
  9
$CLAYER
  8
0
  9
$CELTYPE
  6
ByLayer
  9
$CECOLOR
 62
   256
  9
$CELTSCALE
 40
1.0
  9
$DISPSILH
 70
     0
  9
$DIMSCALE
 40
1.0
  9
$DIMASZ
 40
0.18
  9
$DIMEXO
 40
0.0625
  9
$DIMDLI
 40
0.38
  9
$DIMRND
 40
0.0
  9
$DIMDLE
 40
0.0
  9
$DIMEXE
 40
0.18
  9
$DIMTP
 40
0.0
  9
$DIMTM
 40
0.0
  9
$DIMTXT
 40
0.18
  9
$DIMCEN
 40
0.09
  9
$DIMTSZ
 40
0.0
  9
$DIMTOL
 70
     0
  9
$DIMLIM
 70
     0
  9
$DIMTIH
 70
     1
  9
$DIMTOH
 70
     1
  9
$DIMSE1
 70
     0
  9
$DIMSE2
 70
     0
  9
$DIMTAD
 70
     0
  9
$DIMZIN
 70
     0
  9
$DIMBLK
  1

  9
$DIMASO
 70
     1
  9
$DIMSHO
 70
     1
  9
$DIMPOST
  1

  9
$DIMAPOST
  1

  9
$DIMALT
 70
     0
  9
$DIMALTD
 70
     2
  9
$DIMALTF
 40
25.4
  9
$DIMLFAC
 40
1.0
  9
$DIMTOFL
 70
     0
  9
$DIMTVP
 40
0.0
  9
$DIMTIX
 70
     0
  9
$DIMSOXD
 70
     0
  9
$DIMSAH
 70
     0
  9
$DIMBLK1
  1

  9
$DIMBLK2
  1

  9
$DIMSTYLE
  2
Standard
  9
$DIMCLRD
 70
     0
  9
$DIMCLRE
 70
     0
  9
$DIMCLRT
 70
     0
  9
$DIMTFAC
 40
1.0
  9
$DIMGAP
 40
0.09
  9
$DIMJUST
 70
     0
  9
$DIMSD1
 70
     0
  9
$DIMSD2
 70
     0
  9
$DIMTOLJ
 70
     1
  9
$DIMTZIN
 70
     0
  9
$DIMALTZ
 70
     0
  9
$DIMALTTZ
 70
     0
  9
$DIMUPT
 70
     0
  9
$DIMDEC
 70
     4
  9
$DIMTDEC
 70
     4
  9
$DIMALTU
 70
     2
  9
$DIMALTTD
 70
     2
  9
$DIMTXSTY
  7
Standard
  9
$DIMAUNIT
 70
     0
  9
$DIMADEC
 70
     0
  9
$DIMALTRND
 40
0.0
  9
$DIMAZIN
 70
     0
  9
$DIMDSEP
 70
    46
  9
$DIMATFIT
 70
     3
  9
$DIMFRAC
 70
     0
  9
$DIMLDRBLK
  1

  9
$DIMLUNIT
 70
     2
  9
$DIMLWD
 70
    -2
  9
$DIMLWE
 70
    -2
  9
$DIMTMOVE
 70
     0
  9
$LUNITS
 70
     2
  9
$LUPREC
 70
     4
  9
$SKETCHINC
 40
0.1
  9
$FILLETRAD
 40
0.5
  9
$AUNITS
 70
     0
  9
$AUPREC
 70
     0
  9
$MENU
  1
.
  9
$ELEVATION
 40
0.0
  9
$PELEVATION
 40
0.0
  9
$THICKNESS
 40
0.0
  9
$LIMCHECK
 70
     0
  9
$CHAMFERA
 40
0.0
  9
$CHAMFERB
 40
0.0
  9
$CHAMFERC
 40
0.0
  9
$CHAMFERD
 40
0.0
  9
$SKPOLY
 70
     0
  9
$TDCREATE
 40
2458752.663241678
  9
$TDUCREATE
 40
2458752.579908345
  9
$TDUPDATE
 40
2458752.663242095
  9
$TDUUPDATE
 40
2458752.579908762
  9
$TDINDWG
 40
0.0000000116
  9
$TDUSRTIMER
 40
0.0000000116
  9
$USRTIMER
 70
     1
  9
$ANGBASE
 50
0.0
  9
$ANGDIR
 70
     0
  9
$PDMODE
 70
     0
  9
$PDSIZE
 40
0.0
  9
$PLINEWID
 40
0.0
  9
$SPLFRAME
 70
     0
  9
$SPLINETYPE
 70
     6
  9
$SPLINESEGS
 70
     8
  9
$HANDSEED
  5
20A
  9
$SURFTAB1
 70
     6
  9
$SURFTAB2
 70
     6
  9
$SURFTYPE
 70
     6
  9
$SURFU
 70
     6
  9
$SURFV
 70
     6
  9
$UCSBASE
  2

  9
$UCSNAME
  2

  9
$UCSORG
 10
0.0
 20
0.0
 30
0.0
  9
$UCSXDIR
 10
1.0
 20
0.0
 30
0.0
  9
$UCSYDIR
 10
0.0
 20
1.0
 30
0.0
  9
$UCSORTHOREF
  2

  9
$UCSORTHOVIEW
 70
     0
  9
$UCSORGTOP
 10
0.0
 20
0.0
 30
0.0
  9
$UCSORGBOTTOM
 10
0.0
 20
0.0
 30
0.0
  9
$UCSORGLEFT
 10
0.0
 20
0.0
 30
0.0
  9
$UCSORGRIGHT
 10
0.0
 20
0.0
 30
0.0
  9
$UCSORGFRONT
 10
0.0
 20
0.0
 30
0.0
  9
$UCSORGBACK
 10
0.0
 20
0.0
 30
0.0
  9
$PUCSBASE
  2

  9
$PUCSNAME
  2

  9
$PUCSORG
 10
0.0
 20
0.0
 30
0.0
  9
$PUCSXDIR
 10
1.0
 20
0.0
 30
0.0
  9
$PUCSYDIR
 10
0.0
 20
1.0
 30
0.0
  9
$PUCSORTHOREF
  2

  9
$PUCSORTHOVIEW
 70
     0
  9
$PUCSORGTOP
 10
0.0
 20
0.0
 30
0.0
  9
$PUCSORGBOTTOM
 10
0.0
 20
0.0
 30
0.0
  9
$PUCSORGLEFT
 10
0.0
 20
0.0
 30
0.0
  9
$PUCSORGRIGHT
 10
0.0
 20
0.0
 30
0.0
  9
$PUCSORGFRONT
 10
0.0
 20
0.0
 30
0.0
  9
$PUCSORGBACK
 10
0.0
 20
0.0
 30
0.0
  9
$USERI1
 70
     0
  9
$USERI2
 70
     0
  9
$USERI3
 70
     0
  9
$USERI4
 70
     0
  9
$USERI5
 70
     0
  9
$USERR1
 40
0.0
  9
$USERR2
 40
0.0
  9
$USERR3
 40
0.0
  9
$USERR4
 40
0.0
  9
$USERR5
 40
0.0
  9
$WORLDVIEW
 70
     1
  9
$SHADEDGE
 70
     3
  9
$SHADEDIF
 70
    70
  9
$TILEMODE
 70
     1
  9
$MAXACTVP
 70
    64
  9
$PINSBASE
 10
0.0
 20
0.0
 30
0.0
  9
$PLIMCHECK
 70
     0
  9
$PEXTMIN
 10
-0.5
 20
-0.5
 30
-0.5
  9
$PEXTMAX
 10
5.0
 20
5.0
 30
5.0
  9
$PLIMMIN
 10
-0.5
 20
-0.5
  9
$PLIMMAX
 10
5.0
 20
5.0
  9
$UNITMODE
 70
     0
  9
$VISRETAIN
 70
     1
  9
$PLINEGEN
 70
     0
  9
$PSLTSCALE
 70
     1
  9
$TREEDEPTH
 70
  3020
  9
$CMLSTYLE
  2
Standard
  9
$CMLJUST
 70
     0
  9
$CMLSCALE
 40
1.0
  9
$PROXYGRAPHICS
 70
     1
  9
$MEASUREMENT
 70
     1
  9
$CELWEIGHT
370
    18
  9
$ENDCAPS
280
     0
  9
$JOINSTYLE
280
     0
  9
$LWDISPLAY
290
     1
  9
$INSUNITS
 70
     4
  9
$HYPERLINKBASE
  1

  9
$STYLESHEET
  1

  9
$XEDIT
290
     1
  9
$CEPSNTYPE
380
     0
  9
$PSTYLEMODE
290
     1
  9
$FINGERPRINTGUID
  2
{EEAEF4DB-EBE0-426F-9A66-4506938D556F}
  9
$VERSIONGUID
  2
{FAEB1C32-E019-11D5-929B-00C0DF256EC4}
  9
$EXTNAMES
290
     1
  9
$PSVPSCALE
 40
0.0
  9
$OLESTARTUP
290
     0
  9
$SORTENTS
280
   127
  9
$INDEXCTL
280
     0
  9
$HIDETEXT
280
     1
  9
$XCLIPFRAME
290
     0
  9
$HALOGAP
280
     0
  9
$OBSCOLOR
 70
   257
  9
$OBSLTYPE
280
     0
  9
$INTERSECTIONDISPLAY
280
     0
  9
$INTERSECTIONCOLOR
 70
   257
  9
$DIMASSOC
280
     2
  9
$PROJECTNAME
  1

  0
ENDSEC
  0
SECTION
  2
CLASSES
  0
CLASS
  1
ACDBDICTIONARYWDFLT
  2
AcDbDictionaryWithDefault
  3
ObjectDBX Classes
 90
        0
 91
        3
280
     0
281
     0
  0
CLASS
  1
VISUALSTYLE
  2
AcDbVisualStyle
  3
ObjectDBX Classes
 90
     4095
 91
        3
280
     0
281
     0
  0
CLASS
  1
MATERIAL
  2
AcDbMaterial
  3
ObjectDBX Classes
 90
     1153
 91
        3
280
     0
281
     0
  0
CLASS
  1
SCALE
  2
AcDbScale
  3
ObjectDBX Classes
 90
     1153
 91
        3
280
     0
281
     0
  0
CLASS
  1
TABLESTYLE
  2
AcDbTableStyle
  3
ObjectDBX Classes
 90
     4095
 91
        3
280
     0
281
     0
  0
CLASS
  1
MLEADERSTYLE
  2
AcDbMLeaderStyle
  3
ACDB_MLEADERSTYLE_CLASS
 90
     4095
 91
        3
280
     0
281
     0
  0
CLASS
  1
SUN
  2
AcDbSun
  3
SCENEOE
 90
     1153
 91
        3
280
     0
281
     0
  0
CLASS
  1
DICTIONARYVAR
  2
AcDbDictionaryVar
  3
ObjectDBX Classes
 90
        0
 91
        3
280
     0
281
     0
  0
CLASS
  1
CELLSTYLEMAP
  2
AcDbCellStyleMap
  3
ObjectDBX Classes
 90
     1152
 91
        3
280
     0
281
     0
  0
ENDSEC
  0
SECTION
  2
TABLES
  0
TABLE
  2
VPORT
  5
8
102
{ACAD_XDICTIONARY
360
1C3
102
}
330
0
100
AcDbSymbolTable
 70
    16
  0
VPORT
  5
29
330
8
100
AcDbSymbolTableRecord
100
AcDbViewportTableRecord
  2
*Active
 70
     0
 10
0.0
 20
0.0
 11
1.0
 21
1.0
 12
183.532647
 22
144.440405
 13
0.0
 23
0.0
 14
0.5
 24
0.5
 15
0.5
 25
0.5
 16
0.0
 26
0.0
 36
1.0
 17
0.0
 27
0.0
 37
0.0
 40
254.0
 41
0.069908
 42
50.0
 43
443.129393
 44
-443.129393
 50
0.0
 51
0.0
 71
     0
 72
   100
 73
     1
 74
     3
 75
     0
 76
     0
 77
     0
 78
     0
281
     0
 65
     1
110
0.0
120
0.0
130
0.0
111
1.0
121
0.0
131
0.0
112
0.0
122
1.0
132
0.0
 79
     0
146
0.0
  0
VPORT
  5
1B4
330
8
100
AcDbSymbolTableRecord
100
AcDbViewportTableRecord
  2
L1
 70
     0
 10
0.0
 20
0.0
 11
1.0
 21
1.0
 12
183.532647
 22
144.440405
 13
0.0
 23
0.0
 14
0.5
 24
0.5
 15
0.5
 25
0.5
 16
0.0
 26
0.0
 36
1.0
 17
0.0
 27
0.0
 37
0.0
 40
254.0
 41
0.069908
 42
50.0
 43
443.129393
 44
-443.129393
 50
0.0
 51
0.0
 71
     0
 72
   100
 73
     1
 74
     3
 75
     0
 76
     0
 77
     0
 78
     0
281
     0
 65
     1
110
0.0
120
0.0
130
0.0
111
1.0
121
0.0
131
0.0
112
0.0
122
1.0
132
0.0
 79
     0
146
0.0
  0
VPORT
  5
1B5
330
8
100
AcDbSymbolTableRecord
100
AcDbViewportTableRecord
  2
L2
 70
     0
 10
0.0
 20
0.0
 11
0.5
 21
1.0
 12
0.0
 22
0.0
 13
0.0
 23
0.0
 14
0.5
 24
0.5
 15
0.5
 25
0.5
 16
0.0
 26
-1.0
 36
0.0
 17
0.0
 27
0.0
 37
0.0
 40
1523.333497
 41
0.011657
 42
50.0
 43
782.520171
 44
-782.520171
 50
0.0
 51
0.0
 71
     0
 72
   100
 73
     1
 74
     3
 75
     0
 76
     0
 77
     0
 78
     0
281
     0
 65
     1
110
0.0
120
0.0
130
0.0
111
1.0
121
0.0
131
0.0
112
0.0
122
1.0
132
0.0
 79
     0
146
0.0
  0
VPORT
  5
1B6
330
8
100
AcDbSymbolTableRecord
100
AcDbViewportTableRecord
  2
L2
 70
     0
 10
0.5
 20
0.0
 11
1.0
 21
1.0
 12
0.0
 22
0.0
 13
0.0
 23
0.0
 14
0.5
 24
0.5
 15
0.5
 25
0.5
 16
1.0
 26
0.0
 36
0.0
 17
0.0
 27
0.0
 37
0.0
 40
1523.333497
 41
0.011657
 42
50.0
 43
772.182126
 44
-772.182126
 50
0.0
 51
0.0
 71
     0
 72
   100
 73
     1
 74
     3
 75
     0
 76
     0
 77
     0
 78
     0
281
     0
 65
     1
110
0.0
120
0.0
130
0.0
111
1.0
121
0.0
131
0.0
112
0.0
122
1.0
132
0.0
 79
     0
146
0.0
  0
VPORT
  5
1B7
330
8
100
AcDbSymbolTableRecord
100
AcDbViewportTableRecord
  2
L3
 70
     0
 10
0.0
 20
0.5
 11
1.0
 21
1.0
 12
183.532647
 22
144.440405
 13
0.0
 23
0.0
 14
0.5
 24
0.5
 15
0.5
 25
0.5
 16
0.0
 26
0.0
 36
1.0
 17
0.0
 27
0.0
 37
0.0
 40
254.0
 41
0.069908
 42
50.0
 43
443.129393
 44
-443.129393
 50
0.0
 51
0.0
 71
     0
 72
   100
 73
     1
 74
     3
 75
     0
 76
     0
 77
     0
 78
     0
281
     0
 65
     1
110
0.0
120
0.0
130
0.0
111
1.0
121
0.0
131
0.0
112
0.0
122
1.0
132
0.0
 79
     0
146
0.0
  0
VPORT
  5
1B8
330
8
100
AcDbSymbolTableRecord
100
AcDbViewportTableRecord
  2
L3
 70
     0
 10
0.0
 20
0.0
 11
1.0
 21
0.5
 12
0.0
 22
0.0
 13
0.0
 23
0.0
 14
0.5
 24
0.5
 15
0.5
 25
0.5
 16
0.0
 26
-1.0
 36
0.0
 17
0.0
 27
0.0
 37
0.0
 40
1523.333497
 41
0.011657
 42
50.0
 43
782.520171
 44
-782.520171
 50
0.0
 51
0.0
 71
     0
 72
   100
 73
     1
 74
     3
 75
     0
 76
     0
 77
     0
 78
     0
281
     0
 65
     1
110
0.0
120
0.0
130
0.0
111
1.0
121
0.0
131
0.0
112
0.0
122
1.0
132
0.0
 79
     0
146
0.0
  0
VPORT
  5
1B9
330
8
100
AcDbSymbolTableRecord
100
AcDbViewportTableRecord
  2
L4
 70
     0
 10
0.0
 20
0.5
 11
0.5
 21
1.0
 12
183.532647
 22
144.440405
 13
0.0
 23
0.0
 14
0.5
 24
0.5
 15
0.5
 25
0.5
 16
0.0
 26
0.0
 36
1.0
 17
0.0
 27
0.0
 37
0.0
 40
254.0
 41
0.069908
 42
50.0
 43
443.129393
 44
-443.129393
 50
0.0
 51
0.0
 71
     0
 72
   100
 73
     1
 74
     3
 75
     0
 76
     0
 77
     0
 78
     0
281
     0
 65
     1
110
0.0
120
0.0
130
0.0
111
1.0
121
0.0
131
0.0
112
0.0
122
1.0
132
0.0
 79
     0
146
0.0
  0
VPORT
  5
1BA
330
8
100
AcDbSymbolTableRecord
100
AcDbViewportTableRecord
  2
L4
 70
     0
 10
0.0
 20
0.0
 11
0.5
 21
0.5
 12
0.0
 22
0.0
 13
0.0
 23
0.0
 14
0.5
 24
0.5
 15
0.5
 25
0.5
 16
0.0
 26
-1.0
 36
0.0
 17
0.0
 27
0.0
 37
0.0
 40
1523.333497
 41
0.011657
 42
50.0
 43
782.520171
 44
-782.520171
 50
0.0
 51
0.0
 71
     0
 72
   100
 73
     1
 74
     3
 75
     0
 76
     0
 77
     0
 78
     0
281
     0
 65
     1
110
0.0
120
0.0
130
0.0
111
1.0
121
0.0
131
0.0
112
0.0
122
1.0
132
0.0
 79
     0
146
0.0
  0
VPORT
  5
1BB
330
8
100
AcDbSymbolTableRecord
100
AcDbViewportTableRecord
  2
L4
 70
     0
 10
0.5
 20
0.0
 11
1.0
 21
0.5
 12
0.0
 22
0.0
 13
0.0
 23
0.0
 14
0.5
 24
0.5
 15
0.5
 25
0.5
 16
1.0
 26
0.0
 36
0.0
 17
0.0
 27
0.0
 37
0.0
 40
1523.333497
 41
0.011657
 42
50.0
 43
772.182126
 44
-772.182126
 50
0.0
 51
0.0
 71
     0
 72
   100
 73
     1
 74
     3
 75
     0
 76
     0
 77
     0
 78
     0
281
     0
 65
     1
110
0.0
120
0.0
130
0.0
111
1.0
121
0.0
131
0.0
112
0.0
122
1.0
132
0.0
 79
     0
146
0.0
  0
VPORT
  5
1BC
330
8
100
AcDbSymbolTableRecord
100
AcDbViewportTableRecord
  2
L4
 70
     0
 10
0.5
 20
0.5
 11
1.0
 21
1.0
 12
0.0
 22
0.0
 13
0.0
 23
0.0
 14
0.5
 24
0.5
 15
0.5
 25
0.5
 16
0.5773502691896258
 26
-0.5773502691896258
 36
0.5773502691896258
 17
0.0
 27
0.0
 37
0.0
 40
1494.010329
 41
0.011885
 42
50.0
 43
777.799397
 44
-777.799397
 50
0.0
 51
0.0
 71
     0
 72
   100
 73
     1
 74
     3
 75
     0
 76
     0
 77
     0
 78
     0
281
     0
 65
     1
110
0.0
120
0.0
130
0.0
111
1.0
121
0.0
131
0.0
112
0.0
122
1.0
132
0.0
 79
     0
146
0.0
  0
VPORT
  5
1BD
330
8
100
AcDbSymbolTableRecord
100
AcDbViewportTableRecord
  2
L6
 70
     0
 10
0.0
 20
0.5
 11
0.333333
 21
1.0
 12
0.0
 22
0.0
 13
0.0
 23
0.0
 14
0.5
 24
0.5
 15
0.5
 25
0.5
 16
0.7188730927569433
 26
-0.5850486126764433
 36
0.3754192287502549
 17
0.0
 27
0.0
 37
0.0
 40
1576.602486
 41
0.011263
 42
50.0
 43
816.251529
 44
-816.251529
 50
0.0
 51
0.0
 71
     0
 72
   100
 73
     1
 74
     3
 75
     0
 76
     0
 77
     0
 78
     0
281
     0
 65
     1
110
0.0
120
0.0
130
0.0
111
1.0
121
0.0
131
0.0
112
0.0
122
1.0
132
0.0
 79
     0
146
0.0
  0
VPORT
  5
1BE
330
8
100
AcDbSymbolTableRecord
100
AcDbViewportTableRecord
  2
L6
 70
     0
 10
0.0
 20
0.0
 11
0.333333
 21
0.5
 12
0.0
 22
0.0
 13
0.0
 23
0.0
 14
0.5
 24
0.5
 15
0.5
 25
0.5
 16
-1.0
 26
0.0
 36
0.0
 17
0.0
 27
0.0
 37
0.0
 40
1523.333497
 41
0.011657
 42
50.0
 43
772.182126
 44
-772.182126
 50
0.0
 51
0.0
 71
     0
 72
   100
 73
     1
 74
     3
 75
     0
 76
     0
 77
     0
 78
     0
281
     0
 65
     1
110
0.0
120
0.0
130
0.0
111
1.0
121
0.0
131
0.0
112
0.0
122
1.0
132
0.0
 79
     0
146
0.0
  0
VPORT
  5
1BF
330
8
100
AcDbSymbolTableRecord
100
AcDbViewportTableRecord
  2
L6
 70
     0
 10
0.333333
 20
0.5
 11
0.666667
 21
1.0
 12
183.532647
 22
144.440405
 13
0.0
 23
0.0
 14
0.5
 24
0.5
 15
0.5
 25
0.5
 16
0.0
 26
0.0
 36
1.0
 17
0.0
 27
0.0
 37
0.0
 40
254.0
 41
0.069908
 42
50.0
 43
443.129393
 44
-443.129393
 50
0.0
 51
0.0
 71
     0
 72
   100
 73
     1
 74
     3
 75
     0
 76
     0
 77
     0
 78
     0
281
     0
 65
     1
110
0.0
120
0.0
130
0.0
111
1.0
121
0.0
131
0.0
112
0.0
122
1.0
132
0.0
 79
     0
146
0.0
  0
VPORT
  5
1C0
330
8
100
AcDbSymbolTableRecord
100
AcDbViewportTableRecord
  2
L6
 70
     0
 10
0.333333
 20
0.0
 11
0.666667
 21
0.5
 12
0.0
 22
0.0
 13
0.0
 23
0.0
 14
0.5
 24
0.5
 15
0.5
 25
0.5
 16
0.0
 26
-1.0
 36
0.0
 17
0.0
 27
0.0
 37
0.0
 40
1523.333497
 41
0.011657
 42
50.0
 43
782.520171
 44
-782.520171
 50
0.0
 51
0.0
 71
     0
 72
   100
 73
     1
 74
     3
 75
     0
 76
     0
 77
     0
 78
     0
281
     0
 65
     1
110
0.0
120
0.0
130
0.0
111
1.0
121
0.0
131
0.0
112
0.0
122
1.0
132
0.0
 79
     0
146
0.0
  0
VPORT
  5
1C1
330
8
100
AcDbSymbolTableRecord
100
AcDbViewportTableRecord
  2
L6
 70
     0
 10
0.666667
 20
0.5
 11
1.0
 21
1.0
 12
0.0
 22
0.0
 13
0.0
 23
0.0
 14
0.5
 24
0.5
 15
0.5
 25
0.5
 16
0.5773502691896258
 26
-0.5773502691896258
 36
0.5773502691896258
 17
0.0
 27
0.0
 37
0.0
 40
1494.010329
 41
0.011885
 42
50.0
 43
777.799397
 44
-777.799397
 50
0.0
 51
0.0
 71
     0
 72
   100
 73
     1
 74
     3
 75
     0
 76
     0
 77
     0
 78
     0
281
     0
 65
     1
110
0.0
120
0.0
130
0.0
111
1.0
121
0.0
131
0.0
112
0.0
122
1.0
132
0.0
 79
     0
146
0.0
  0
VPORT
  5
1C2
330
8
100
AcDbSymbolTableRecord
100
AcDbViewportTableRecord
  2
L6
 70
     0
 10
0.666667
 20
0.0
 11
1.0
 21
0.5
 12
0.0
 22
0.0
 13
0.0
 23
0.0
 14
0.5
 24
0.5
 15
0.5
 25
0.5
 16
1.0
 26
0.0
 36
0.0
 17
0.0
 27
0.0
 37
0.0
 40
1523.333497
 41
0.011657
 42
50.0
 43
772.182126
 44
-772.182126
 50
0.0
 51
0.0
 71
     0
 72
   100
 73
     1
 74
     3
 75
     0
 76
     0
 77
     0
 78
     0
281
     0
 65
     1
110
0.0
120
0.0
130
0.0
111
1.0
121
0.0
131
0.0
112
0.0
122
1.0
132
0.0
 79
     0
146
0.0
  0
ENDTAB
  0
TABLE
  2
LTYPE
  5
5
330
0
100
AcDbSymbolTable
 70
     6
  0
LTYPE
  5
14
330
5
100
AcDbSymbolTableRecord
100
AcDbLinetypeTableRecord
  2
ByBlock
 70
     0
  3

 72
    65
 73
     0
 40
0.0
  0
LTYPE
  5
15
330
5
100
AcDbSymbolTableRecord
100
AcDbLinetypeTableRecord
  2
ByLayer
 70
     0
  3

 72
    65
 73
     0
 40
0.0
  0
LTYPE
  5
16
330
5
100
AcDbSymbolTableRecord
100
AcDbLinetypeTableRecord
  2
Continuous
 70
     0
  3
Solid line
 72
    65
 73
     0
 40
0.0
  0
LTYPE
  5
6E
330
5
100
AcDbSymbolTableRecord
100
AcDbLinetypeTableRecord
  2
CENTER
 70
     0
  3
____ _ ____ _ ____ _ ____
 72
    65
 73
     4
 40
47.4
 49
22.0
 74
     4
 75
     0
340
0
 46
0.0
 50
0.0
 44
0.0
 45
0.0
 49
-8.5
 74
     4
 75
     0
340
0
 46
0.0
 50
0.0
 44
0.0
 45
0.0
 49
8.5
 74
     4
 75
     0
340
0
 46
0.0
 50
0.0
 44
0.0
 45
0.0
 49
-8.5
 74
     4
 75
     0
340
0
 46
0.0
 50
0.0
 44
0.0
 45
0.0
  0
LTYPE
  5
6F
330
5
100
AcDbSymbolTableRecord
100
AcDbLinetypeTableRecord
  2
DASHDOT
 70
     0
  3
_._._._._._._._._._._._._._._._.
 72
    65
 73
     4
 40
70.0
 49
31.0
 74
     4
 75
     0
340
0
 46
0.0
 50
0.0
 44
0.0
 45
0.0
 49
-13.0
 74
     4
 75
     0
340
0
 46
0.0
 50
0.0
 44
0.0
 45
0.0
 49
13.0
 74
     4
 75
     0
340
0
 46
0.0
 50
0.0
 44
0.0
 45
0.0
 49
-13.0
 74
     4
 75
     0
340
0
 46
0.0
 50
0.0
 44
0.0
 45
0.0
  0
LTYPE
  5
70
330
5
100
AcDbSymbolTableRecord
100
AcDbLinetypeTableRecord
  2
DASHED
 70
     0
  3
__ __ __ __ __ __ __ __ __
 72
    65
 73
     2
 40
25.72
 49
12.86
 74
     4
 75
     0
340
0
 46
0.0
 50
0.0
 44
0.0
 45
0.0
 49
-12.86
 74
     4
 75
     0
340
0
 46
0.0
 50
0.0
 44
0.0
 45
0.0
  0
LTYPE
  5
71
330
5
100
AcDbSymbolTableRecord
100
AcDbLinetypeTableRecord
  2
DOT
 70
     0
  3
.........................
 72
    65
 73
     2
 40
10.0
 49
0.0
 74
     4
 75
     0
340
0
 46
0.0
 50
0.0
 44
0.0
 45
0.0
 49
-10.0
 74
     4
 75
     0
340
0
 46
0.0
 50
0.0
 44
0.0
 45
0.0
  0
LTYPE
  5
72
330
5
100
AcDbSymbolTableRecord
100
AcDbLinetypeTableRecord
  2
PHANTOM
 70
     0
  3
____ _ _ ____ _ _ _____ _ _ ____
 72
    65
 73
     6
 40
50.5
 49
18.0
 74
     4
 75
     0
340
0
 46
0.0
 50
0.0
 44
0.0
 45
0.0
 49
-6.5
 74
     4
 75
     0
340
0
 46
0.0
 50
0.0
 44
0.0
 45
0.0
 49
6.5
 74
     4
 75
     0
340
0
 46
0.0
 50
0.0
 44
0.0
 45
0.0
 49
-6.5
 74
     4
 75
     0
340
0
 46
0.0
 50
0.0
 44
0.0
 45
0.0
 49
6.5
 74
     4
 75
     0
340
0
 46
0.0
 50
0.0
 44
0.0
 45
0.0
 49
-6.5
 74
     4
 75
     0
340
0
 46
0.0
 50
0.0
 44
0.0
 45
0.0
  0
ENDTAB
  0
TABLE
  2
LAYER
  5
2
330
0
100
AcDbSymbolTable
 70
     2
  0
LAYER
  5
10
330
2
100
AcDbSymbolTableRecord
100
AcDbLayerTableRecord
  2
0
 70
     0
 62
     7
  6
Continuous
370
    -3
390
F
  0
LAYER
  5
74
330
2
100
AcDbSymbolTableRecord
100
AcDbLayerTableRecord
  2
1
 70
     0
 62
     7
420
 16777215
  6
Continuous
370
    -3
390
F
  0
ENDTAB
  0
TABLE
  2
STYLE
  5
3
330
0
100
AcDbSymbolTable
 70
     1
  0
STYLE
  5
11
330
3
100
AcDbSymbolTableRecord
100
AcDbTextStyleTableRecord
  2
Standard
 70
     0
 40
0.0
 41
1.0
 50
0.0
 71
     0
 42
0.2
  3
txt
  4

  0
ENDTAB
  0
TABLE
  2
VIEW
  5
6
330
0
100
AcDbSymbolTable
 70
     0
  0
ENDTAB
  0
TABLE
  2
UCS
  5
7
330
0
100
AcDbSymbolTable
 70
     0
  0
ENDTAB
  0
TABLE
  2
APPID
  5
9
330
0
100
AcDbSymbolTable
 70
     2
  0
APPID
  5
12
330
9
100
AcDbSymbolTableRecord
100
AcDbRegAppTableRecord
  2
ACAD
 70
     0
  0
APPID
  5
202
330
9
100
AcDbSymbolTableRecord
100
AcDbRegAppTableRecord
  2
ACAD_MLEADERVER
 70
     0
  0
ENDTAB
  0
TABLE
  2
DIMSTYLE
  5
A
330
0
100
AcDbSymbolTable
 70
     1
100
AcDbDimStyleTable
  0
DIMSTYLE
105
27
330
A
100
AcDbSymbolTableRecord
100
AcDbDimStyleTableRecord
  2
Standard
 70
     0
178
     0
340
11
  0
ENDTAB
  0
TABLE
  2
BLOCK_RECORD
  5
1
330
0
100
AcDbSymbolTable
 70
     1
  0
BLOCK_RECORD
  5
1F
330
1
100
AcDbSymbolTableRecord
100
AcDbBlockTableRecord
  2
*Model_Space
340
22
  0
BLOCK_RECORD
  5
1B
330
1
100
AcDbSymbolTableRecord
100
AcDbBlockTableRecord
  2
*Paper_Space
340
1E
  0
BLOCK_RECORD
  5
23
330
1
100
AcDbSymbolTableRecord
100
AcDbBlockTableRecord
  2
*Paper_Space0
340
26
  0
ENDTAB
  0
ENDSEC
  0
SECTION
  2
BLOCKS
  0
BLOCK
  5
20
330
1F
100
AcDbEntity
  8
0
100
AcDbBlockBegin
  2
*Model_Space
 70
     0
 10
0.0
 20
0.0
 30
0.0
  3
*Model_Space
  1

  0
ENDBLK
  5
21
330
1F
100
AcDbEntity
  8
0
100
AcDbBlockEnd
  0
BLOCK
  5
1C
330
1B
100
AcDbEntity
 67
     1
  8
0
100
AcDbBlockBegin
  2
*Paper_Space
 70
     0
 10
0.0
 20
0.0
 30
0.0
  3
*Paper_Space
  1

  0
ENDBLK
  5
1D
330
1B
100
AcDbEntity
 67
     1
  8
0
100
AcDbBlockEnd
  0
BLOCK
  5
24
330
23
100
AcDbEntity
  8
0
100
AcDbBlockBegin
  2
*Paper_Space0
 70
     0
 10
0.0
 20
0.0
 30
0.0
  3
*Paper_Space0
  1

  0
ENDBLK
  5
25
330
23
100
AcDbEntity
  8
0
100
AcDbBlockEnd
  0
ENDSEC
  0
SECTION
  2
ENTITIES
  0
POINT
  5
73
330
1F
100
AcDbEntity
  8
1
  6
Continuous
 62
    30
 60
     1
370
    13
100
AcDbPoint
 10
254.128834
 20
158.623188
 30
0.0
  0
POINT
  5
75
330
1F
100
AcDbEntity
  8
1
  6
Continuous
 62
    30
 60
     1
370
    13
100
AcDbPoint
 10
254.128834
 20
199.357261
 30
0.0
  0
POINT
  5
76
330
1F
100
AcDbEntity
  8
1
  6
Continuous
 62
    30
 60
     1
370
    13
100
AcDbPoint
 10
119.823687
 20
158.623188
 30
0.0
  0
POINT
  5
77
330
1F
100
AcDbEntity
  8
1
  6
Continuous
 62
    30
 60
     1
370
    13
100
AcDbPoint
 10
119.823687
 20
199.357261
 30
0.0
  0
LINE
  5
78
330
1F
100
AcDbEntity
  8
1
  6
Continuous
 62
   252
370
    18
100
AcDbLine
 10
134.323687
 20
197.123063
 30
0.0
 11
134.323687
 21
198.123188
 31
0.0
  0
LINE
  5
79
330
1F
100
AcDbEntity
  8
1
  6
Continuous
 62
   252
370
    18
100
AcDbLine
 10
105.323687
 20
198.123188
 30
0.0
 11
105.323687
 21
197.327188
 31
0.0
  0
LINE
  5
7A
330
1F
100
AcDbEntity
  8
1
  6
Continuous
 62
   252
370
    18
100
AcDbLine
 10
102.323687
 20
183.123188
 30
0.0
 11
102.323687
 21
180.123188
 31
0.0
  0
LINE
  5
7B
330
1F
100
AcDbEntity
  8
1
  6
Continuous
 62
   252
370
    18
100
AcDbLine
 10
137.323687
 20
180.123188
 30
0.0
 11
137.323687
 21
183.123188
 31
0.0
  0
LINE
  5
7C
330
1F
100
AcDbEntity
  8
1
  6
Continuous
 62
   252
370
    18
100
AcDbLine
 10
127.823687
 20
156.123188
 30
0.0
 11
127.823687
 21
180.123188
 31
0.0
  0
LINE
  5
7D
330
1F
100
AcDbEntity
  8
1
  6
Continuous
 62
   252
370
    18
100
AcDbLine
 10
111.823687
 20
180.123188
 30
0.0
 11
111.823687
 21
156.123188
 31
0.0
  0
LINE
  5
7E
330
1F
100
AcDbEntity
  8
1
  6
Continuous
 62
   252
370
    18
100
AcDbLine
 10
137.323687
 20
183.123188
 30
0.0
 11
146.765991
 21
197.857261
 31
0.0
  0
LINE
  5
7F
330
1F
100
AcDbEntity
  8
1
  6
Continuous
 62
   252
370
    18
100
AcDbLine
 10
92.881383
 20
197.857261
 30
0.0
 11
102.323687
 21
183.123188
 31
0.0
  0
LINE
  5
80
330
1F
100
AcDbEntity
  8
1
  6
Continuous
 62
   252
370
    13
100
AcDbLine
 10
93.465576
 20
200.623188
 30
0.0
 11
92.25965
 21
199.959789
 31
0.0
  0
LINE
  5
81
330
1F
100
AcDbEntity
  8
1
  6
Continuous
 62
   252
370
    18
100
AcDbLine
 10
134.323687
 20
198.123188
 30
0.0
 11
105.323687
 21
198.123188
 31
0.0
  0
LINE
  5
82
330
1F
100
AcDbEntity
  8
1
  6
Continuous
 62
   252
370
    18
100
AcDbLine
 10
135.582065
 20
202.826176
 30
0.0
 11
135.582065
 21
197.123188
 31
0.0
  0
LINE
  5
83
330
1F
100
AcDbEntity
  8
1
  6
Continuous
 62
   252
370
    18
100
AcDbLine
 10
104.065309
 20
200.623188
 30
0.0
 11
104.065309
 21
202.826176
 31
0.0
  0
LINE
  5
84
330
1F
100
AcDbEntity
  8
1
  6
Continuous
 62
   252
370
    18
100
AcDbLine
 10
137.323687
 20
180.123188
 30
0.0
 11
102.323687
 21
180.123188
 31
0.0
  0
LINE
  5
85
330
1F
100
AcDbEntity
  8
1
  6
Continuous
 62
   252
370
    18
100
AcDbLine
 10
102.323687
 20
183.123188
 30
0.0
 11
119.823687
 21
183.123188
 31
0.0
  0
LINE
  5
86
330
1F
100
AcDbEntity
  8
1
  6
Continuous
 62
   252
370
    18
100
AcDbLine
 10
119.823687
 20
183.123188
 30
0.0
 11
137.323687
 21
183.123188
 31
0.0
  0
LINE
  5
87
330
1F
100
AcDbEntity
  8
1
  6
Continuous
 62
   252
370
    18
100
AcDbLine
 10
127.823687
 20
156.123188
 30
0.0
 11
111.823687
 21
156.123188
 31
0.0
  0
LINE
  5
88
330
1F
100
AcDbEntity
  8
1
  6
Continuous
 62
   252
370
    13
100
AcDbLine
 10
146.121835
 20
197.857261
 30
0.0
 11
144.971291
 21
198.612645
 31
0.0
  0
LINE
  5
89
330
1F
100
AcDbEntity
  8
1
  6
Continuous
 62
   252
370
    13
100
AcDbLine
 10
93.465576
 20
200.623188
 30
0.0
 11
104.065309
 21
200.623188
 31
0.0
  0
LINE
  5
8A
330
1F
100
AcDbEntity
  8
1
  6
Continuous
 62
   252
370
    18
100
AcDbLine
 10
98.34049
 20
197.123188
 30
0.0
 11
142.688021
 21
197.123188
 31
0.0
  0
LINE
  5
8B
330
1F
100
AcDbEntity
  8
1
  6
Continuous
 62
   252
370
    13
100
AcDbLine
 10
93.630097
 20
197.857261
 30
0.0
 11
92.881383
 21
197.857261
 31
0.0
  0
LINE
  5
8C
330
1F
100
AcDbEntity
  8
1
  6
Continuous
 62
   252
370
    13
100
AcDbLine
 10
146.765991
 20
197.857261
 30
0.0
 11
146.121835
 21
197.857261
 31
0.0
  0
LINE
  5
8D
330
1F
100
AcDbEntity
  8
1
  6
Continuous
 62
   252
370
    13
100
AcDbLine
 10
144.21652
 20
194.967804
 30
0.0
 11
97.281485
 21
194.967804
 31
0.0
  0
LINE
  5
8E
330
1F
100
AcDbEntity
  8
1
  6
Continuous
 62
   252
370
    18
100
AcDbLine
 10
268.628834
 20
197.123063
 30
0.0
 11
268.628834
 21
198.123188
 31
0.0
  0
LINE
  5
8F
330
1F
100
AcDbEntity
  8
1
  6
Continuous
 62
   252
370
    18
100
AcDbLine
 10
239.628834
 20
198.123188
 30
0.0
 11
239.628834
 21
197.123063
 31
0.0
  0
LINE
  5
90
330
1F
100
AcDbEntity
  8
1
  6
Continuous
 62
   252
370
    18
100
AcDbLine
 10
236.628834
 20
183.123188
 30
0.0
 11
236.628834
 21
180.123188
 31
0.0
  0
LINE
  5
91
330
1F
100
AcDbEntity
  8
1
  6
Continuous
 62
   252
370
    18
100
AcDbLine
 10
271.628834
 20
180.123188
 30
0.0
 11
271.628834
 21
183.123188
 31
0.0
  0
LINE
  5
92
330
1F
100
AcDbEntity
  8
1
  6
Continuous
 62
   252
370
    18
100
AcDbLine
 10
271.628834
 20
183.123188
 30
0.0
 11
279.219435
 21
194.967804
 31
0.0
  0
LINE
  5
93
330
1F
100
AcDbEntity
  8
1
  6
Continuous
 62
   252
370
    18
100
AcDbLine
 10
229.038233
 20
194.967804
 30
0.0
 11
236.628834
 21
183.123188
 31
0.0
  0
LINE
  5
94
330
1F
100
AcDbEntity
  8
1
  6
Continuous
 62
   252
370
    18
100
AcDbLine
 10
261.128834
 20
241.508277
 30
0.0
 11
262.128834
 21
241.508277
 31
0.0
  0
LINE
  5
95
330
1F
100
AcDbEntity
  8
1
  6
Continuous
 62
   252
370
    18
100
AcDbLine
 10
262.128834
 20
242.870834
 30
0.0
 11
261.128834
 21
242.870834
 31
0.0
  0
LINE
  5
96
330
1F
100
AcDbEntity
  8
1
  6
Continuous
 62
   252
370
    18
100
AcDbLine
 10
261.128834
 20
241.820834
 30
0.0
 11
262.128834
 21
241.820834
 31
0.0
  0
LINE
  5
97
330
1F
100
AcDbEntity
  8
1
  6
Continuous
 62
   252
370
    18
100
AcDbLine
 10
262.128834
 20
241.344411
 30
0.0
 11
261.128834
 21
241.344411
 31
0.0
  0
LINE
  5
98
330
1F
100
AcDbEntity
  8
1
  6
Continuous
 62
   252
370
    18
100
AcDbLine
 10
247.128834
 20
242.870834
 30
0.0
 11
246.128834
 21
242.870834
 31
0.0
  0
LINE
  5
99
330
1F
100
AcDbEntity
  8
1
  6
Continuous
 62
   252
370
    18
100
AcDbLine
 10
262.128834
 20
240.846594
 30
0.0
 11
261.128834
 21
240.846594
 31
0.0
  0
LINE
  5
9A
330
1F
100
AcDbEntity
  8
1
  6
Continuous
 62
   252
370
    18
100
AcDbLine
 10
247.128834
 20
240.850979
 30
0.0
 11
246.128834
 21
240.850979
 31
0.0
  0
LINE
  5
9B
330
1F
100
AcDbEntity
  8
1
  6
Continuous
 62
   252
370
    18
100
AcDbLine
 10
246.128834
 20
237.249335
 30
0.0
 11
247.128834
 21
237.249335
 31
0.0
  0
LINE
  5
9C
330
1F
100
AcDbEntity
  8
1
  6
Continuous
 62
   252
370
    18
100
AcDbLine
 10
247.128834
 20
242.558277
 30
0.0
 11
246.128834
 21
242.558277
 31
0.0
  0
LINE
  5
9D
330
1F
100
AcDbEntity
  8
1
  6
Continuous
 62
   252
370
    18
100
AcDbLine
 10
246.128834
 20
241.129695
 30
0.0
 11
247.128834
 21
241.129695
 31
0.0
  0
LINE
  5
9E
330
1F
100
AcDbEntity
  8
1
  6
Continuous
 62
   252
370
    18
100
AcDbLine
 10
247.128834
 20
242.179695
 30
0.0
 11
246.128834
 21
242.179695
 31
0.0
  0
LINE
  5
9F
330
1F
100
AcDbEntity
  8
1
  6
Continuous
 62
   252
370
    18
100
AcDbLine
 10
262.128834
 20
156.123188
 30
0.0
 11
262.128834
 21
180.123188
 31
0.0
  0
LINE
  5
A0
330
1F
100
AcDbEntity
  8
1
  6
Continuous
 62
   252
370
    18
100
AcDbLine
 10
246.128834
 20
180.123188
 30
0.0
 11
246.128834
 21
156.123188
 31
0.0
  0
LINE
  5
A1
330
1F
100
AcDbEntity
  8
1
  6
Continuous
 62
   252
370
    18
100
AcDbLine
 10
239.628834
 20
198.123188
 30
0.0
 11
247.11847
 21
198.123188
 31
0.0
  0
LINE
  5
A2
330
1F
100
AcDbEntity
  8
1
  6
Continuous
 62
   252
370
    18
100
AcDbLine
 10
262.211805
 20
198.123188
 30
0.0
 11
268.628834
 21
198.123188
 31
0.0
  0
LINE
  5
A3
330
1F
100
AcDbEntity
  8
1
  6
Continuous
 62
   252
370
    18
100
AcDbLine
 10
236.628834
 20
180.123188
 30
0.0
 11
271.628834
 21
180.123188
 31
0.0
  0
LINE
  5
A4
330
1F
100
AcDbEntity
  8
1
  6
Continuous
 62
   252
370
    18
100
AcDbLine
 10
230.216959
 20
197.123188
 30
0.0
 11
247.128834
 21
197.123188
 31
0.0
  0
LINE
  5
A5
330
1F
100
AcDbEntity
  8
1
  6
Continuous
 62
   252
370
    18
100
AcDbLine
 10
271.628834
 20
183.123188
 30
0.0
 11
236.628834
 21
183.123188
 31
0.0
  0
LINE
  5
A6
330
1F
100
AcDbEntity
  8
1
  6
Continuous
 62
   252
370
    18
100
AcDbLine
 10
262.128834
 20
241.820856
 30
0.0
 11
262.128834
 21
241.508277
 31
0.0
  0
LINE
  5
A7
330
1F
100
AcDbEntity
  8
1
  6
Continuous
 62
   252
370
    18
100
AcDbLine
 10
262.128834
 20
242.870834
 30
0.0
 11
262.128834
 21
241.820834
 31
0.0
  0
LINE
  5
A8
330
1F
100
AcDbEntity
  8
1
  6
Continuous
 62
   252
370
    18
100
AcDbLine
 10
246.128834
 20
242.870834
 30
0.0
 11
246.128834
 21
242.558303
 31
0.0
  0
LINE
  5
A9
330
1F
100
AcDbEntity
  8
1
  6
Continuous
 62
   252
370
    18
100
AcDbLine
 10
246.128834
 20
242.558277
 30
0.0
 11
246.128834
 21
242.179698
 31
0.0
  0
LINE
  5
AA
330
1F
100
AcDbEntity
  8
1
  6
Continuous
 62
   252
370
    18
100
AcDbLine
 10
246.128834
 20
242.179695
 30
0.0
 11
246.128834
 21
241.654695
 31
0.0
  0
LINE
  5
AB
330
1F
100
AcDbEntity
  8
1
  6
Continuous
 62
   252
370
    18
100
AcDbLine
 10
246.128834
 20
241.654695
 30
0.0
 11
246.128834
 21
241.129695
 31
0.0
  0
LINE
  5
AC
330
1F
100
AcDbEntity
  8
1
  6
Continuous
 62
   252
370
    18
100
AcDbLine
 10
278.040709
 20
197.123188
 30
0.0
 11
264.628834
 21
197.123188
 31
0.0
  0
LINE
  5
AD
330
1F
100
AcDbEntity
  8
1
  6
Continuous
 62
   252
370
    18
100
AcDbLine
 10
246.128834
 20
237.181512
 30
0.0
 11
247.128834
 21
237.181512
 31
0.0
  0
LINE
  5
AE
330
1F
100
AcDbEntity
  8
1
  6
Continuous
 62
   252
370
    18
100
AcDbLine
 10
246.128834
 20
237.076446
 30
0.0
 11
247.128834
 21
237.076446
 31
0.0
  0
LINE
  5
AF
330
1F
100
AcDbEntity
  8
1
  6
Continuous
 62
   252
370
    18
100
AcDbLine
 10
262.128834
 20
241.492374
 30
0.0
 11
261.128834
 21
241.492374
 31
0.0
  0
LINE
  5
B0
330
1F
100
AcDbEntity
  8
1
  6
Continuous
 62
   252
370
    18
100
AcDbLine
 10
246.128834
 20
156.123188
 30
0.0
 11
262.128834
 21
156.123188
 31
0.0
  0
LINE
  5
B1
330
1F
100
AcDbEntity
  8
1
  6
Continuous
 62
   252
370
    18
100
AcDbLine
 10
262.128834
 20
237.076446
 30
0.0
 11
261.128834
 21
237.076446
 31
0.0
  0
LINE
  5
B2
330
1F
100
AcDbEntity
  8
1
  6
Continuous
 62
   252
370
    18
100
AcDbLine
 10
262.128834
 20
240.480878
 30
0.0
 11
261.128834
 21
240.480878
 31
0.0
  0
LINE
  5
B3
330
1F
100
AcDbEntity
  8
1
  6
Continuous
 62
   252
370
    18
100
AcDbLine
 10
262.128834
 20
240.576532
 30
0.0
 11
261.128834
 21
240.576532
 31
0.0
  0
LINE
  5
B4
330
1F
100
AcDbEntity
  8
1
  6
Continuous
 62
   252
370
    18
100
AcDbLine
 10
246.128834
 20
240.577667
 30
0.0
 11
247.128834
 21
240.577667
 31
0.0
  0
LINE
  5
B5
330
1F
100
AcDbEntity
  8
1
  6
Continuous
 62
   252
370
    18
100
AcDbLine
 10
246.128834
 20
240.480626
 30
0.0
 11
247.128834
 21
240.480626
 31
0.0
  0
LINE
  5
B6
330
1F
100
AcDbEntity
  8
1
  6
Continuous
 62
   252
370
    13
100
AcDbLine
 10
248.252784
 20
194.967804
 30
0.0
 11
229.038233
 21
194.967804
 31
0.0
  0
LINE
  5
B7
330
1F
100
AcDbEntity
  8
1
  6
Continuous
 62
   252
370
    13
100
AcDbLine
 10
265.146427
 20
194.967804
 30
0.0
 11
279.219435
 21
194.967804
 31
0.0
  0
LINE
  5
B8
330
1F
100
AcDbEntity
  8
1
  6
Continuous
 62
   252
370
    18
100
AcDbLine
 10
247.128834
 20
245.206406
 30
0.0
 11
247.128834
 21
198.612645
 31
0.0
  0
LINE
  5
B9
330
1F
100
AcDbEntity
  8
1
  6
Continuous
 62
   252
370
    18
100
AcDbLine
 10
261.128834
 20
245.206406
 30
0.0
 11
261.128834
 21
200.623188
 31
0.0
  0
LINE
  5
BA
330
1F
100
AcDbEntity
  8
1
  6
Continuous
 62
   252
370
    13
100
AcDbLine
 10
260.436259
 20
197.857261
 30
0.0
 11
248.272625
 21
197.857261
 31
0.0
  0
LINE
  5
BB
330
1F
100
AcDbEntity
  8
1
  6
Continuous
 62
   252
370
    13
100
AcDbLine
 10
259.985043
 20
246.582762
 30
0.0
 11
259.985043
 21
199.959789
 31
0.0
  0
LINE
  5
BC
330
1F
100
AcDbEntity
  8
1
  6
Continuous
 62
   252
370
    13
100
AcDbLine
 10
248.272625
 20
246.582762
 30
0.0
 11
248.272625
 21
197.857261
 31
0.0
  0
LINE
  5
BD
330
1F
100
AcDbEntity
  8
1
  6
Continuous
 62
   252
370
    18
100
AcDbLine
 10
124.24625
 20
59.957589
 30
0.0
 11
124.24625
 21
58.957589
 31
0.0
  0
LINE
  5
BE
330
1F
100
AcDbEntity
  8
1
  6
Continuous
 62
   252
370
    18
100
AcDbLine
 10
115.401124
 20
73.957589
 30
0.0
 11
115.401124
 21
74.957589
 31
0.0
  0
LINE
  5
BF
330
1F
100
AcDbEntity
  8
1
  6
Continuous
 62
   252
370
    18
100
AcDbLine
 10
121.731727
 20
59.957589
 30
0.0
 11
121.731727
 21
58.957589
 31
0.0
  0
LINE
  5
C0
330
1F
100
AcDbEntity
  8
1
  6
Continuous
 62
   252
370
    18
100
AcDbLine
 10
117.915647
 20
73.957589
 30
0.0
 11
117.915647
 21
74.957589
 31
0.0
  0
LINE
  5
C1
330
1F
100
AcDbEntity
  8
1
  6
Continuous
 62
   252
370
    18
100
AcDbLine
 10
124.113481
 20
58.957589
 30
0.0
 11
124.113481
 21
59.957589
 31
0.0
  0
LINE
  5
C2
330
1F
100
AcDbEntity
  8
1
  6
Continuous
 62
   252
370
    18
100
AcDbLine
 10
115.533893
 20
74.957589
 30
0.0
 11
115.533893
 21
73.957589
 31
0.0
  0
LINE
  5
C3
330
1F
100
AcDbEntity
  8
1
  6
Continuous
 62
   252
370
    18
100
AcDbLine
 10
124.532961
 20
74.957589
 30
0.0
 11
124.532961
 21
73.957589
 31
0.0
  0
LINE
  5
C4
330
1F
100
AcDbEntity
  8
1
  6
Continuous
 62
   252
370
    18
100
AcDbLine
 10
115.114413
 20
58.957589
 30
0.0
 11
115.114413
 21
59.957589
 31
0.0
  0
LINE
  5
C5
330
1F
100
AcDbEntity
  8
1
  6
Continuous
 62
   252
370
    18
100
AcDbLine
 10
115.14267
 20
73.957589
 30
0.0
 11
115.14267
 21
74.957589
 31
0.0
  0
LINE
  5
C6
330
1F
100
AcDbEntity
  8
1
  6
Continuous
 62
   252
370
    18
100
AcDbLine
 10
124.504704
 20
59.957589
 30
0.0
 11
124.504704
 21
58.957589
 31
0.0
  0
LINE
  5
C7
330
1F
100
AcDbEntity
  8
1
  6
Continuous
 62
   252
370
    18
100
AcDbLine
 10
115.434965
 20
59.957589
 30
0.0
 11
115.434965
 21
58.957589
 31
0.0
  0
LINE
  5
C8
330
1F
100
AcDbEntity
  8
1
  6
Continuous
 62
   252
370
    18
100
AcDbLine
 10
124.212409
 20
73.957589
 30
0.0
 11
124.212409
 21
74.957589
 31
0.0
  0
LINE
  5
C9
330
1F
100
AcDbEntity
  8
1
  6
Continuous
 62
   252
370
    18
100
AcDbLine
 10
128.573687
 20
58.957589
 30
0.0
 11
128.573687
 21
59.957589
 31
0.0
  0
LINE
  5
CA
330
1F
100
AcDbEntity
  8
1
  6
Continuous
 62
   252
370
    18
100
AcDbLine
 10
127.523687
 20
59.957589
 30
0.0
 11
127.523687
 21
58.957589
 31
0.0
  0
LINE
  5
CB
330
1F
100
AcDbEntity
  8
1
  6
Continuous
 62
   252
370
    18
100
AcDbLine
 10
111.073687
 20
74.957589
 30
0.0
 11
111.073687
 21
73.957589
 31
0.0
  0
LINE
  5
CC
330
1F
100
AcDbEntity
  8
1
  6
Continuous
 62
   252
370
    18
100
AcDbLine
 10
112.123687
 20
73.957589
 30
0.0
 11
112.123687
 21
74.957589
 31
0.0
  0
LINE
  5
CD
330
1F
100
AcDbEntity
  8
1
  6
Continuous
 62
   252
370
    18
100
AcDbLine
 10
112.385137
 20
74.957589
 30
0.0
 11
112.385137
 21
73.957589
 31
0.0
  0
LINE
  5
CE
330
1F
100
AcDbEntity
  8
1
  6
Continuous
 62
   252
370
    18
100
AcDbLine
 10
113.435137
 20
73.957589
 30
0.0
 11
113.435137
 21
74.957589
 31
0.0
  0
LINE
  5
CF
330
1F
100
AcDbEntity
  8
1
  6
Continuous
 62
   252
370
    18
100
AcDbLine
 10
127.262237
 20
58.957589
 30
0.0
 11
127.262237
 21
59.957589
 31
0.0
  0
LINE
  5
D0
330
1F
100
AcDbEntity
  8
1
  6
Continuous
 62
   252
370
    18
100
AcDbLine
 10
126.212237
 20
59.957589
 30
0.0
 11
126.212237
 21
58.957589
 31
0.0
  0
LINE
  5
D1
330
1F
100
AcDbEntity
  8
1
  6
Continuous
 62
   252
370
    18
100
AcDbLine
 10
113.71387
 20
74.957589
 30
0.0
 11
113.71387
 21
73.957589
 31
0.0
  0
LINE
  5
D2
330
1F
100
AcDbEntity
  8
1
  6
Continuous
 62
   252
370
    18
100
AcDbLine
 10
114.76387
 20
73.957589
 30
0.0
 11
114.76387
 21
74.957589
 31
0.0
  0
LINE
  5
D3
330
1F
100
AcDbEntity
  8
1
  6
Continuous
 62
   252
370
    18
100
AcDbLine
 10
125.933503
 20
58.957589
 30
0.0
 11
125.933503
 21
59.957589
 31
0.0
  0
LINE
  5
D4
330
1F
100
AcDbEntity
  8
1
  6
Continuous
 62
   252
370
    18
100
AcDbLine
 10
124.883503
 20
59.957589
 30
0.0
 11
124.883503
 21
58.957589
 31
0.0
  0
LINE
  5
D5
330
1F
100
AcDbEntity
  8
1
  6
Continuous
 62
   252
370
    13
100
AcDbLine
 10
97.082687
 20
55.842833
 30
0.0
 11
98.34049
 21
56.457589
 31
0.0
  0
LINE
  5
D6
330
1F
100
AcDbEntity
  8
1
  6
Continuous
 62
   252
370
    13
100
AcDbLine
 10
142.564687
 20
78.072345
 30
0.0
 11
141.306884
 21
77.457589
 31
0.0
  0
LINE
  5
D7
330
1F
100
AcDbEntity
  8
1
  6
Continuous
 62
   252
370
    13
100
AcDbLine
 10
106.146096
 20
56.457589
 30
0.0
 11
98.34049
 21
56.457589
 31
0.0
  0
LINE
  5
D8
330
1F
100
AcDbEntity
  8
1
  6
Continuous
 62
   252
370
    13
100
AcDbLine
 10
133.501278
 20
77.457589
 30
0.0
 11
141.306884
 21
77.457589
 31
0.0
  0
LINE
  5
D9
330
1F
100
AcDbEntity
  8
1
  6
Continuous
 62
   252
370
    18
100
AcDbLine
 10
128.573687
 20
58.957589
 30
0.0
 11
127.523687
 21
58.957589
 31
0.0
  0
LINE
  5
DA
330
1F
100
AcDbEntity
  8
1
  6
Continuous
 62
   252
370
    18
100
AcDbLine
 10
111.073687
 20
74.957589
 30
0.0
 11
112.123687
 21
74.957589
 31
0.0
  0
LINE
  5
DB
330
1F
100
AcDbEntity
  8
1
  6
Continuous
 62
   252
370
    18
100
AcDbLine
 10
112.385137
 20
74.957589
 30
0.0
 11
113.435137
 21
74.957589
 31
0.0
  0
LINE
  5
DC
330
1F
100
AcDbEntity
  8
1
  6
Continuous
 62
   252
370
    18
100
AcDbLine
 10
127.262237
 20
58.957589
 30
0.0
 11
126.212237
 21
58.957589
 31
0.0
  0
LINE
  5
DD
330
1F
100
AcDbEntity
  8
1
  6
Continuous
 62
   252
370
    18
100
AcDbLine
 10
113.71387
 20
74.957589
 30
0.0
 11
114.76387
 21
74.957589
 31
0.0
  0
LINE
  5
DE
330
1F
100
AcDbEntity
  8
1
  6
Continuous
 62
   252
370
    18
100
AcDbLine
 10
125.933503
 20
58.957589
 30
0.0
 11
124.883503
 21
58.957589
 31
0.0
  0
LINE
  5
DF
330
1F
100
AcDbEntity
  8
1
  6
Continuous
 62
   252
370
    18
100
AcDbLine
 10
124.281101
 20
58.957589
 30
0.0
 11
124.281101
 21
59.957589
 31
0.0
  0
LINE
  5
E0
330
1F
100
AcDbEntity
  8
1
  6
Continuous
 62
   252
370
    18
100
AcDbLine
 10
115.366273
 20
74.957589
 30
0.0
 11
115.366273
 21
73.957589
 31
0.0
  0
LINE
  5
E1
330
1F
100
AcDbEntity
  8
1
  6
Continuous
 62
   252
370
    18
100
AcDbLine
 10
112.583837
 20
58.957589
 30
0.0
 11
112.583837
 21
59.957589
 31
0.0
  0
LINE
  5
E2
330
1F
100
AcDbEntity
  8
1
  6
Continuous
 62
   252
370
    18
100
AcDbLine
 10
127.063537
 20
74.957589
 30
0.0
 11
127.063537
 21
73.957589
 31
0.0
  0
LINE
  5
E3
330
1F
100
AcDbEntity
  8
1
  6
Continuous
 62
   252
370
    18
100
AcDbLine
 10
126.677073
 20
74.957589
 30
0.0
 11
126.677073
 21
73.957589
 31
0.0
  0
LINE
  5
E4
330
1F
100
AcDbEntity
  8
1
  6
Continuous
 62
   252
370
    18
100
AcDbLine
 10
112.970301
 20
58.957589
 30
0.0
 11
112.970301
 21
59.957589
 31
0.0
  0
LINE
  5
E5
330
1F
100
AcDbEntity
  8
1
  6
Continuous
 62
   252
370
    18
100
AcDbLine
 10
121.795706
 20
74.957589
 30
0.0
 11
121.78698
 21
74.957589
 31
0.0
  0
LINE
  5
E6
330
1F
100
AcDbEntity
  8
1
  6
Continuous
 62
   252
370
    18
100
AcDbLine
 10
117.851668
 20
58.957589
 30
0.0
 11
117.860394
 21
58.957589
 31
0.0
  0
LINE
  5
E7
330
1F
100
AcDbEntity
  8
1
  6
Continuous
 62
   252
370
    18
100
AcDbLine
 10
126.597908
 20
74.957589
 30
0.0
 11
126.597908
 21
73.957589
 31
0.0
  0
LINE
  5
E8
330
1F
100
AcDbEntity
  8
1
  6
Continuous
 62
   252
370
    18
100
AcDbLine
 10
113.049466
 20
58.957589
 30
0.0
 11
113.049466
 21
59.957589
 31
0.0
  0
LINE
  5
E9
330
1F
100
AcDbEntity
  8
1
  6
Continuous
 62
   252
370
    18
100
AcDbLine
 10
117.68556
 20
74.957589
 30
0.0
 11
117.68556
 21
73.957589
 31
0.0
  0
LINE
  5
EA
330
1F
100
AcDbEntity
  8
1
  6
Continuous
 62
   252
370
    18
100
AcDbLine
 10
121.961813
 20
58.957589
 30
0.0
 11
121.961813
 21
59.957589
 31
0.0
  0
LINE
  5
EB
330
1F
100
AcDbEntity
  8
1
  6
Continuous
 62
   252
370
    18
100
AcDbLine
 10
117.438587
 20
74.957589
 30
0.0
 11
117.438587
 21
73.957589
 31
0.0
  0
LINE
  5
EC
330
1F
100
AcDbEntity
  8
1
  6
Continuous
 62
   252
370
    18
100
AcDbLine
 10
115.535134
 20
74.957589
 30
0.0
 11
115.535134
 21
73.957589
 31
0.0
  0
LINE
  5
ED
330
1F
100
AcDbEntity
  8
1
  6
Continuous
 62
   252
370
    18
100
AcDbLine
 10
122.208787
 20
58.957589
 30
0.0
 11
122.208787
 21
59.957589
 31
0.0
  0
LINE
  5
EE
330
1F
100
AcDbEntity
  8
1
  6
Continuous
 62
   252
370
    18
100
AcDbLine
 10
124.11224
 20
58.957589
 30
0.0
 11
124.11224
 21
59.957589
 31
0.0
  0
LINE
  5
EF
330
1F
100
AcDbEntity
  8
1
  6
Continuous
 62
   252
370
    18
100
AcDbLine
 10
117.860394
 20
58.957589
 30
0.0
 11
117.860394
 21
59.957589
 31
0.0
  0
LINE
  5
F0
330
1F
100
AcDbEntity
  8
1
  6
Continuous
 62
   252
370
    18
100
AcDbLine
 10
117.820951
 20
58.957589
 30
0.0
 11
117.820951
 21
59.957589
 31
0.0
  0
LINE
  5
F1
330
1F
100
AcDbEntity
  8
1
  6
Continuous
 62
   252
370
    18
100
AcDbLine
 10
121.78698
 20
74.957589
 30
0.0
 11
121.78698
 21
73.957589
 31
0.0
  0
LINE
  5
F2
330
1F
100
AcDbEntity
  8
1
  6
Continuous
 62
   252
370
    18
100
AcDbLine
 10
121.826423
 20
74.957589
 30
0.0
 11
121.826423
 21
73.957589
 31
0.0
  0
LINE
  5
F3
330
1F
100
AcDbEntity
  8
1
  6
Continuous
 62
   252
370
    18
100
AcDbLine
 10
118.06388
 20
74.957589
 30
0.0
 11
118.06388
 21
73.957589
 31
0.0
  0
LINE
  5
F4
330
1F
100
AcDbEntity
  8
1
  6
Continuous
 62
   252
370
    18
100
AcDbLine
 10
118.489337
 20
74.957589
 30
0.0
 11
118.489337
 21
73.957589
 31
0.0
  0
LINE
  5
F5
330
1F
100
AcDbEntity
  8
1
  6
Continuous
 62
   252
370
    18
100
AcDbLine
 10
121.583494
 20
58.957589
 30
0.0
 11
121.583494
 21
59.957589
 31
0.0
  0
LINE
  5
F6
330
1F
100
AcDbEntity
  8
1
  6
Continuous
 62
   252
370
    18
100
AcDbLine
 10
121.158037
 20
58.957589
 30
0.0
 11
121.158037
 21
59.957589
 31
0.0
  0
LINE
  5
F7
330
1F
100
AcDbEntity
  8
1
  6
Continuous
 62
   252
370
    18
100
AcDbLine
 10
120.56841
 20
58.957589
 30
0.0
 11
120.56841
 21
59.957589
 31
0.0
  0
LINE
  5
F8
330
1F
100
AcDbEntity
  8
1
  6
Continuous
 62
   252
370
    18
100
AcDbLine
 10
119.078964
 20
74.957589
 30
0.0
 11
119.078964
 21
73.957589
 31
0.0
  0
LINE
  5
F9
330
1F
100
AcDbEntity
  8
1
  6
Continuous
 62
   252
370
    18
100
AcDbLine
 10
119.594432
 20
74.957589
 30
0.0
 11
119.594432
 21
73.957589
 31
0.0
  0
LINE
  5
FA
330
1F
100
AcDbEntity
  8
1
  6
Continuous
 62
   252
370
    18
100
AcDbLine
 10
120.454595
 20
74.957589
 30
0.0
 11
120.454595
 21
73.957589
 31
0.0
  0
LINE
  5
FB
330
1F
100
AcDbEntity
  8
1
  6
Continuous
 62
   252
370
    18
100
AcDbLine
 10
120.043577
 20
74.957589
 30
0.0
 11
120.043577
 21
73.957589
 31
0.0
  0
LINE
  5
FC
330
1F
100
AcDbEntity
  8
1
  6
Continuous
 62
   252
370
    18
100
AcDbLine
 10
120.052942
 20
58.957589
 30
0.0
 11
120.052942
 21
59.957589
 31
0.0
  0
LINE
  5
FD
330
1F
100
AcDbEntity
  8
1
  6
Continuous
 62
   252
370
    18
100
AcDbLine
 10
119.192779
 20
58.957589
 30
0.0
 11
119.192779
 21
59.957589
 31
0.0
  0
LINE
  5
FE
330
1F
100
AcDbEntity
  8
1
  6
Continuous
 62
   252
370
    18
100
AcDbLine
 10
119.603797
 20
58.957589
 30
0.0
 11
119.603797
 21
59.957589
 31
0.0
  0
LINE
  5
FF
330
1F
100
AcDbEntity
  8
1
  6
Continuous
 62
   252
370
    18
100
AcDbLine
 10
119.059718
 20
58.957589
 30
0.0
 11
119.059718
 21
59.957589
 31
0.0
  0
LINE
  5
100
330
1F
100
AcDbEntity
  8
1
  6
Continuous
 62
   252
370
    18
100
AcDbLine
 10
120.587656
 20
74.957589
 30
0.0
 11
120.587656
 21
73.957589
 31
0.0
  0
LINE
  5
101
330
1F
100
AcDbEntity
  8
1
  6
Continuous
 62
   252
370
    18
100
AcDbLine
 10
118.044091
 20
58.957589
 30
0.0
 11
118.044091
 21
59.957589
 31
0.0
  0
LINE
  5
102
330
1F
100
AcDbEntity
  8
1
  6
Continuous
 62
   252
370
    18
100
AcDbLine
 10
118.495969
 20
58.957589
 30
0.0
 11
118.495969
 21
59.957589
 31
0.0
  0
LINE
  5
103
330
1F
100
AcDbEntity
  8
1
  6
Continuous
 62
   252
370
    18
100
AcDbLine
 10
121.603282
 20
74.957589
 30
0.0
 11
121.603282
 21
73.957589
 31
0.0
  0
LINE
  5
104
330
1F
100
AcDbEntity
  8
1
  6
Continuous
 62
   252
370
    18
100
AcDbLine
 10
121.151405
 20
74.957589
 30
0.0
 11
121.151405
 21
73.957589
 31
0.0
  0
LINE
  5
105
330
1F
100
AcDbEntity
  8
1
  6
Continuous
 62
   252
370
    18
100
AcDbLine
 10
89.740469
 20
59.957589
 30
0.0
 11
149.906905
 21
59.957589
 31
0.0
  0
LINE
  5
106
330
1F
100
AcDbEntity
  8
1
  6
Continuous
 62
   252
370
    18
100
AcDbLine
 10
149.906905
 20
73.957589
 30
0.0
 11
89.740469
 21
73.957589
 31
0.0
  0
LINE
  5
107
330
1F
100
AcDbEntity
  8
1
  6
Continuous
 62
   252
370
    13
100
AcDbLine
 10
151.283261
 20
61.10138
 30
0.0
 11
88.364113
 21
61.10138
 31
0.0
  0
LINE
  5
108
330
1F
100
AcDbEntity
  8
1
  6
Continuous
 62
   252
370
    13
100
AcDbLine
 10
88.364113
 20
72.813798
 30
0.0
 11
151.283261
 21
72.813798
 31
0.0
  0
ARC
  5
109
330
1F
100
AcDbEntity
  8
1
  6
Continuous
 62
   252
370
    18
100
AcDbCircle
 10
119.823687
 20
215.123188
 30
0.0
 40
31.99999999999998
100
AcDbArc
 50
0.0
 51
212.653707
  0
ARC
  5
10A
330
1F
100
AcDbEntity
  8
1
  6
Continuous
 62
   252
370
    18
100
AcDbCircle
 10
119.823687
 20
215.123188
 30
0.0
 40
31.99999999999998
100
AcDbArc
 50
327.346293
 51
0.0
  0
CIRCLE
  5
10B
330
1F
100
AcDbEntity
  8
1
  6
Continuous
 62
   252
370
    18
100
AcDbCircle
 10
125.408503
 20
242.345834
 30
0.0
 40
0.5250000000000004
  0
CIRCLE
  5
10C
330
1F
100
AcDbEntity
  8
1
  6
Continuous
 62
   252
370
    18
100
AcDbCircle
 10
126.737237
 20
242.033277
 30
0.0
 40
0.5250000000000004
  0
CIRCLE
  5
10D
330
1F
100
AcDbEntity
  8
1
  6
Continuous
 62
   252
370
    18
100
AcDbCircle
 10
128.048687
 20
241.654695
 30
0.0
 40
0.5250000000000004
  0
ARC
  5
10E
330
1F
100
AcDbEntity
  8
1
  6
Continuous
 62
   252
370
    18
100
AcDbCircle
 10
119.823687
 20
215.623188
 30
0.0
 40
17.49999999999999
100
AcDbArc
 50
342.871655
 51
197.128345
  0
ARC
  5
10F
330
1F
100
AcDbEntity
  8
1
  6
Continuous
 62
   252
370
    13
100
AcDbCircle
 10
119.823687
 20
215.123188
 30
0.0
 40
31.4595742880864
100
AcDbArc
 50
326.713284
 51
208.815865
  0
ARC
  5
110
330
1F
100
AcDbEntity
  8
1
  6
Continuous
 62
   252
370
    13
100
AcDbCircle
 10
119.823687
 20
215.623188
 30
0.0
 40
20.29999999999999
100
AcDbArc
 50
320.920754
 51
219.079246
  0
ARC
  5
111
330
1F
100
AcDbEntity
  8
1
  6
Continuous
 62
   252
370
    13
100
AcDbCircle
 10
119.823687
 20
215.123188
 30
0.0
 40
30.08321791298263
100
AcDbArc
 50
326.713284
 51
208.815865
  0
ARC
  5
112
330
1F
100
AcDbEntity
  8
1
  6
Continuous
 62
   252
370
    18
100
AcDbCircle
 10
278.040709
 20
195.723188
 30
0.0
 40
1.4
100
AcDbArc
 50
327.346293
 51
90.0
  0
ARC
  5
113
330
1F
100
AcDbEntity
  8
1
  6
Continuous
 62
   252
370
    18
100
AcDbCircle
 10
230.216959
 20
195.723188
 30
0.0
 40
1.4
100
AcDbArc
 50
90.0
 51
212.653707
  0
ARC
  5
114
330
1F
100
AcDbEntity
  8
1
  6
Continuous
 62
   252
370
    18
100
AcDbCircle
 10
248.528834
 20
245.206406
 30
0.0
 40
1.4
100
AcDbArc
 50
100.544931
 51
180.0
  0
ARC
  5
115
330
1F
100
AcDbEntity
  8
1
  6
Continuous
 62
   252
370
    18
100
AcDbCircle
 10
259.728834
 20
245.206406
 30
0.0
 40
1.4
100
AcDbArc
 50
0.0
 51
79.455069
  0
ARC
  5
116
330
1F
100
AcDbEntity
  8
1
  6
Continuous
 62
   252
370
    18
100
AcDbCircle
 10
254.128834
 20
215.123188
 30
0.0
 40
31.99999999999998
100
AcDbArc
 50
79.455069
 51
100.544931
  0
ARC
  5
117
330
1F
100
AcDbEntity
  8
1
  6
Continuous
 62
   252
370
    18
100
AcDbCircle
 10
119.823687
 20
66.957589
 30
0.0
 40
25.31187500000006
100
AcDbArc
 50
270.0
 51
343.944965
  0
ARC
  5
118
330
1F
100
AcDbEntity
  8
1
  6
Continuous
 62
   252
370
    18
100
AcDbCircle
 10
119.823687
 20
66.957589
 30
0.0
 40
25.31187500000006
100
AcDbArc
 50
206.04726
 51
270.0
  0
ARC
  5
119
330
1F
100
AcDbEntity
  8
1
  6
Continuous
 62
   252
370
    18
100
AcDbCircle
 10
119.823687
 20
66.957589
 30
0.0
 40
25.31187500000006
100
AcDbArc
 50
26.04726
 51
163.944036
  0
ARC
  5
11A
330
1F
100
AcDbEntity
  8
1
  6
Continuous
 62
   252
370
    18
100
AcDbCircle
 10
89.740469
 20
72.557589
 30
0.0
 40
1.4
100
AcDbArc
 50
90.0
 51
169.455069
  0
ARC
  5
11B
330
1F
100
AcDbEntity
  8
1
  6
Continuous
 62
   252
370
    18
100
AcDbCircle
 10
149.906905
 20
72.557589
 30
0.0
 40
1.4
100
AcDbArc
 50
10.544931
 51
90.0
  0
ARC
  5
11C
330
1F
100
AcDbEntity
  8
1
  6
Continuous
 62
   252
370
    18
100
AcDbCircle
 10
149.906905
 20
61.357589
 30
0.0
 40
1.4
100
AcDbArc
 50
270.0
 51
349.455069
  0
ARC
  5
11D
330
1F
100
AcDbEntity
  8
1
  6
Continuous
 62
   252
370
    18
100
AcDbCircle
 10
89.740469
 20
61.357589
 30
0.0
 40
1.4
100
AcDbArc
 50
190.544931
 51
270.0
  0
ARC
  5
11E
330
1F
100
AcDbEntity
  8
1
  6
Continuous
 62
   252
370
    18
100
AcDbCircle
 10
119.823687
 20
66.957589
 30
0.0
 40
31.99999999999998
100
AcDbArc
 50
349.455069
 51
10.544931
  0
ARC
  5
11F
330
1F
100
AcDbEntity
  8
1
  6
Continuous
 62
   252
370
    18
100
AcDbCircle
 10
119.823687
 20
66.957589
 30
0.0
 40
31.99999999999998
100
AcDbArc
 50
169.455069
 51
190.544931
  0
ARC
  5
120
330
1F
100
AcDbEntity
  8
1
  6
Continuous
 62
   252
370
    18
100
AcDbCircle
 10
119.823687
 20
66.957589
 30
0.0
 40
17.24315780649917
100
AcDbArc
 50
217.512694
 51
336.048818
  0
ARC
  5
121
330
1F
100
AcDbEntity
  8
1
  6
Continuous
 62
   252
370
    18
100
AcDbCircle
 10
119.823687
 20
66.957589
 30
0.0
 40
17.24315780649917
100
AcDbArc
 50
37.512694
 51
156.048818
  0
ARC
  5
122
330
1F
100
AcDbEntity
  8
1
  6
Continuous
 62
   252
370
    13
100
AcDbCircle
 10
119.823687
 20
66.957589
 30
0.0
 40
23.91187500000006
100
AcDbArc
 50
26.04726
 51
162.977838
  0
ARC
  5
123
330
1F
100
AcDbEntity
  8
1
  6
Continuous
 62
   252
370
    18
100
AcDbCircle
 10
119.823687
 20
66.957589
 30
0.0
 40
14.5
100
AcDbArc
 50
28.867498
 51
151.138122
  0
ARC
  5
124
330
1F
100
AcDbEntity
  8
1
  6
Continuous
 62
   252
370
    18
100
AcDbCircle
 10
119.823687
 20
66.957589
 30
0.0
 40
14.5
100
AcDbArc
 50
208.861874
 51
331.132497
  0
ARC
  5
125
330
1F
100
AcDbEntity
  8
1
  6
Continuous
 62
   252
370
    13
100
AcDbCircle
 10
119.823687
 20
66.957589
 30
0.0
 40
23.91187500000006
100
AcDbArc
 50
206.04726
 51
342.977838
  0
ELLIPSE
  5
126
330
1F
100
AcDbEntity
  8
1
  6
Continuous
 62
   252
370
    13
100
AcDbEllipse
 10
94.776067
 20
198.612645
 30
0.0
 11
-1.110596244075221
 21
-0.8523942647894887
 31
0.0
210
0.0
220
0.0
230
1.0
 40
0.336155
 41
4.459893083298914
 42
6.072340521801119
  0
ELLIPSE
  5
127
330
1F
100
AcDbEntity
  8
1
  6
Continuous
 62
   252
370
    13
100
AcDbEllipse
 10
98.34049
 20
195.723188
 30
0.0
 11
0.0
 21
1.4
 31
0.0
210
0.0
220
0.0
230
1.0
 40
0.898432
 41
0.0
 42
2.140711027295202
  0
ELLIPSE
  5
128
330
1F
100
AcDbEntity
  8
1
  6
Continuous
 62
   252
370
    13
100
AcDbEllipse
 10
264.628834
 20
195.723188
 30
0.0
 11
0.0
 21
1.4
 31
0.0
210
0.0
220
0.0
230
1.0
 40
0.439112
 41
4.142474279884385
 42
6.283185307179607
  0
ELLIPSE
  5
129
330
1F
100
AcDbEntity
  8
1
  6
Continuous
 62
   252
370
    13
100
AcDbEllipse
 10
260.160309
 20
198.612645
 30
0.0
 11
-1.276721449121618
 21
-0.5744408945686198
 31
0.0
210
0.0
220
0.0
230
1.0
 40
0.573422
 41
1.529145215087604
 42
3.141592653589809
  0
ELLIPSE
  5
12A
330
1F
100
AcDbEntity
  8
1
  6
Continuous
 62
   252
370
    13
100
AcDbEllipse
 10
259.728834
 20
200.623188
 30
0.0
 11
1.4
 21
0.0
 31
0.0
210
0.0
220
0.0
230
1.0
 40
0.481996
 41
4.896432749881692
 42
6.283185307179581
  0
ELLIPSE
  5
12B
330
1F
100
AcDbEntity
  8
1
  6
Continuous
 62
   252
370
    13
100
AcDbEllipse
 10
248.528834
 20
198.612645
 30
0.0
 11
1.4
 21
0.0
 31
0.0
210
0.0
220
0.0
230
1.0
 40
0.548829
 41
3.141592653589789
 42
4.528345210887687
  0
ELLIPSE
  5
12C
330
1F
100
AcDbEntity
  8
1
  6
Continuous
 62
   252
370
    13
100
AcDbEllipse
 10
94.776067
 20
60.926114
 30
0.0
 11
-0.7080242291207673
 21
-1.207767233773935
 31
0.0
210
0.0
220
0.0
230
1.0
 40
0.747119
 41
6.281697343518289
 42
6.948494949065604
  0
ELLIPSE
  5
12D
330
1F
100
AcDbEntity
  8
1
  6
Continuous
 62
   252
370
    13
100
AcDbEllipse
 10
144.871307
 20
72.989064
 30
0.0
 11
0.70802422912077
 21
1.207767233773934
 31
0.0
210
0.0
220
0.0
230
1.0
 40
0.747119
 41
6.281697343518287
 42
6.948494949065601
  0
SPLINE
  5
12E
330
1F
100
AcDbEntity
  8
1
  6
Continuous
 62
   252
370
    13
100
AcDbSpline
210
0.0
220
0.0
230
1.0
 70
     8
 71
     3
 72
    14
 73
    10
 74
     0
 42
0.000000001
 43
0.0000000001
 40
0.0
 40
0.0
 40
0.0
 40
0.0
 40
0.25
 40
0.25
 40
0.5
 40
0.5
 40
0.75
 40
0.75
 40
1.0
 40
1.0
 40
1.0
 40
1.0
 10
93.63009726431628
 20
197.8572605679654
 30
0.0
 10
93.50622530907624
 20
198.0186550469273
 30
0.0
 10
93.3848088541321
 20
198.183471833329
 30
0.0
 10
93.14675889076808
 20
198.5198847279383
 30
0.0
 10
93.03012528156702
 20
198.6914804584285
 30
0.0
 10
92.80163435075542
 20
199.0415790661156
 30
0.0
 10
92.68977622715974
 20
199.2200803951529
 30
0.0
 10
92.47096296913743
 20
199.5843377342367
 30
0.0
 10
92.36400595248783
 20
199.7700903413792
 30
0.0
 10
92.25964963497876
 20
199.9597893323995
 30
0.0
  0
SPLINE
  5
12F
330
1F
100
AcDbEntity
  8
1
  6
Continuous
 62
   252
370
    13
100
AcDbSpline
210
0.0
220
0.0
230
1.0
 70
     8
 71
     3
 72
    14
 73
    10
 74
     0
 42
0.000000001
 43
0.0000000001
 40
0.0
 40
0.0
 40
0.0
 40
0.0
 40
0.25
 40
0.25
 40
0.5
 40
0.5
 40
0.75
 40
0.75
 40
1.0
 40
1.0
 40
1.0
 40
1.0
 10
93.46557626859553
 20
200.6231880252101
 30
0.0
 10
93.56727064474376
 20
200.4911450880321
 30
0.0
 10
93.67102420233795
 20
200.3625766601919
 30
0.0
 10
93.88229493908716
 20
200.1116596032656
 30
0.0
 10
93.98981433001529
 20
199.9893151880619
 30
0.0
 10
94.20842314348434
 20
199.7504177951262
 30
0.0
 10
94.31951363854817
 20
199.6338668937451
 30
0.0
 10
94.54517777361718
 20
199.4063248384404
 30
0.0
 10
94.65975186696024
 20
199.2953346094627
 30
0.0
 10
94.77606681414949
 20
199.1870857887885
 30
0.0
  0
SPLINE
  5
130
330
1F
100
AcDbEntity
  8
1
  6
Continuous
 62
   252
370
    18
100
AcDbSpline
210
0.0
220
0.0
230
1.0
 70
     8
 71
     3
 72
    51
 73
    47
 74
     0
 42
0.000000001
 43
0.0000000001
 40
0.0
 40
0.0
 40
0.0
 40
0.0
 40
0.0625000000000012
 40
0.0625000000000012
 40
0.1250000000000024
 40
0.1250000000000024
 40
0.1875000000000036
 40
0.1875000000000036
 40
0.2500000000000048
 40
0.2500000000000048
 40
0.3125000000000061
 40
0.3125000000000061
 40
0.343750000000006
 40
0.343750000000006
 40
0.3750000000000059
 40
0.3750000000000059
 40
0.4375000000000056
 40
0.5000000000000053
 40
0.5000000000000053
 40
0.5625000000000051
 40
0.5625000000000051
 40
0.6250000000000049
 40
0.6250000000000049
 40
0.6875000000000047
 40
0.6875000000000047
 40
0.7187500000000044
 40
0.7187500000000044
 40
0.7500000000000042
 40
0.7500000000000042
 40
0.812500000000003
 40
0.812500000000003
 40
0.8437500000000026
 40
0.8437500000000026
 40
0.875000000000002
 40
0.875000000000002
 40
0.9062500000000016
 40
0.9062500000000016
 40
0.9218750000000013
 40
0.9218750000000013
 40
0.9375000000000012
 40
0.9375000000000012
 40
0.9687500000000012
 40
0.9687500000000012
 40
0.9843750000000006
 40
0.9843750000000006
 40
1.0
 40
1.0
 40
1.0
 40
1.0
 10
135.5820654173783
 20
202.8261763091817
 30
0.0
 10
135.5820654173783
 20
203.001646842338
 30
0.0
 10
135.5849609274513
 20
203.175971711555
 30
0.0
 10
135.5953718637823
 20
203.5227783000246
 30
0.0
 10
135.6028918478205
 20
203.6952577432824
 30
0.0
 10
135.6216834148562
 20
204.0386818956742
 30
0.0
 10
135.6329574278674
 20
204.2096254193701
 30
0.0
 10
135.6585764892723
 20
204.5502034119532
 30
0.0
 10
135.6729229361819
 20
204.7198372220074
 30
0.0
 10
135.7041401270902
 20
205.057964598183
 30
0.0
 10
135.7210117107021
 20
205.2264577921468
 30
0.0
 10
135.7478785995121
 20
205.4784373723984
 30
0.0
 10
135.7570999445628
 20
205.5623467042613
 30
0.0
 10
135.775972668316
 20
205.7295466291623
 30
0.0
 10
135.7856275368179
 20
205.8128725227352
 30
0.0
 10
135.8151792944951
 20
206.0620719559597
 30
0.0
 10
135.8561427212853
 20
206.3922672067768
 30
0.0
 10
135.8996211672214
 20
206.7186706568101
 30
0.0
 10
135.9441257297706
 20
207.0432785178771
 30
0.0
 10
135.9668909463879
 20
207.2046850020536
 30
0.0
 10
136.0132825227304
 20
207.5257257186045
 30
0.0
 10
136.0369085672652
 20
207.685360823156
 30
0.0
 10
136.0849280758797
 20
208.0027880733518
 30
0.0
 10
136.1093206648055
 20
208.1605821286903
 30
0.0
 10
136.1464805727913
 20
208.3957379591112
 30
0.0
 10
136.1589651831803
 20
208.4738777515908
 30
0.0
 10
136.1840846435711
 20
208.6292781981048
 30
0.0
 10
136.1967253614995
 20
208.7065770433739
 30
0.0
 10
136.2349126028406
 20
208.9371465599009
 30
0.0
 10
136.2607161362407
 20
209.0891144106165
 30
0.0
 10
136.3001412019183
 20
209.3136256804457
 30
0.0
 10
136.3134045425818
 20
209.3878843597704
 30
0.0
 10
136.3402390251003
 20
209.5350138529365
 30
0.0
 10
136.3538096099076
 20
209.607886449627
 30
0.0
 10
136.3813573826123
 20
209.7519061481482
 30
0.0
 10
136.3953334709711
 20
209.8230567657914
 30
0.0
 10
136.4167204032894
 20
209.9280977754435
 30
0.0
 10
136.4239203936379
 20
209.9628289031508
 30
0.0
 10
136.4384915050377
 20
210.0316309711808
 30
0.0
 10
136.4458667962319
 20
210.0657193153615
 30
0.0
 10
136.4681926668295
 20
210.1663062731639
 30
0.0
 10
136.4833686514098
 20
210.2313120688427
 30
0.0
 10
136.5068102660617
 20
210.3244131086247
 30
0.0
 10
136.5147383209583
 20
210.3547053821726
 30
0.0
 10
136.530886425819
 20
210.4134554321013
 30
0.0
 10
136.5391060108919
 20
210.4419157814234
 30
0.0
 10
136.5475170127876
 20
210.4692081203049
 30
0.0
  0
SPLINE
  5
131
330
1F
100
AcDbEntity
  8
1
  6
Continuous
 62
   252
370
    18
100
AcDbSpline
210
0.0
220
0.0
230
1.0
 70
     8
 71
     3
 72
    42
 73
    38
 74
     0
 42
0.000000001
 43
0.0000000001
 40
0.0
 40
0.0
 40
0.0
 40
0.0
 40
0.0824997449419373
 40
0.0824997449419373
 40
0.1649994898838745
 40
0.1649994898838745
 40
0.206249362354843
 40
0.206249362354843
 40
0.2268742985903283
 40
0.2268742985903283
 40
0.2474992348258136
 40
0.2474992348258136
 40
0.3299989797677574
 40
0.3299989797677574
 40
0.4124987247097009
 40
0.4124987247097009
 40
0.4537485971806739
 40
0.4743735334161615
 40
0.4743735334161615
 40
0.494998469651649
 40
0.494998469651649
 40
0.5774982145935977
 40
0.5774982145935977
 40
0.6599979595355465
 40
0.6599979595355465
 40
0.7012478320065206
 40
0.7218727682420075
 40
0.7218727682420075
 40
0.7424977044774945
 40
0.7424977044774945
 40
0.8249974494194415
 40
0.8249974494194415
 40
0.9074971943613886
 40
0.9074971943613886
 40
0.9899969393033358
 40
0.9899969393033358
 40
1.0
 40
1.0
 40
1.0
 40
1.0
 10
135.5820654173783
 20
200.6231880252101
 30
0.0
 10
135.5820654173783
 20
200.4970850602382
 30
0.0
 10
135.5790524848423
 20
200.3722634832198
 30
0.0
 10
135.5671947310733
 20
200.1250792912555
 30
0.0
 10
135.5583489383931
 20
200.0027170731979
 30
0.0
 10
135.5406103881273
 20
199.8210119271968
 30
0.0
 10
135.533950168949
 20
199.7607506089567
 30
0.0
 10
135.5228049016008
 20
199.670824745288
 30
0.0
 10
135.5188971661474
 20
199.640927187439
 30
0.0
 10
135.510688810129
 20
199.5812889984981
 30
0.0
 10
135.5063806590682
 20
199.5515000471942
 30
0.0
 10
135.4839423210069
 20
199.403644318047
 30
0.0
 10
135.4631602726094
 20
199.2889425054917
 30
0.0
 10
135.415894566956
 20
199.0663675253789
 30
0.0
 10
135.3894100727645
 20
198.9584959569095
 30
0.0
 10
135.3451953874953
 20
198.8017390761781
 30
0.0
 10
135.3219633580893
 20
198.7246258170987
 30
0.0
 10
135.2969800837387
 20
198.6494189752661
 30
0.0
 10
135.2799264984938
 20
198.5997072050675
 30
0.0
 10
135.2711976196523
 20
198.5750585202672
 30
0.0
 10
135.2268067961356
 20
198.4536045001211
 30
0.0
 10
135.1887117827744
 20
198.3615568851762
 30
0.0
 10
135.1072467742077
 20
198.1871030219579
 30
0.0
 10
135.0638761589276
 20
198.1046993066179
 30
0.0
 10
134.9946777980661
 20
197.9881025827785
 30
0.0
 10
134.9590414994495
 20
197.9315594458111
 30
0.0
 10
134.9218012495061
 20
197.8776321366547
 30
0.0
 10
134.8966116769999
 20
197.8422616333327
 30
0.0
 10
134.8838400075272
 20
197.8248747809697
 30
0.0
 10
134.8193950400215
 20
197.7398166884125
 30
0.0
 10
134.7657104178062
 20
197.6773985266778
 30
0.0
 10
134.6540246146852
 20
197.5630201109926
 30
0.0
 10
134.5960231046813
 20
197.5110625963264
 30
0.0
 10
134.4755836905079
 20
197.4170958367438
 30
0.0
 10
134.4131457208677
 20
197.3750880372259
 30
0.0
 10
134.3405527569521
 20
197.3334013672637
 30
0.0
 10
134.3326791976386
 20
197.3289706039218
 30
0.0
 10
134.3247829418247
 20
197.3246165849607
 30
0.0
  0
SPLINE
  5
132
330
1F
100
AcDbEntity
  8
1
  6
Continuous
 62
   252
370
    18
100
AcDbSpline
210
0.0
220
0.0
230
1.0
 70
     8
 71
     3
 72
    46
 73
    42
 74
     0
 42
0.000000001
 43
0.0000000001
 40
0.0
 40
0.0
 40
0.0
 40
0.0
 40
0.0156250000000001
 40
0.0156250000000001
 40
0.0312500000000002
 40
0.0312500000000002
 40
0.0625000000000006
 40
0.0625000000000006
 40
0.093750000000001
 40
0.093750000000001
 40
0.1250000000000014
 40
0.1250000000000014
 40
0.1562500000000019
 40
0.1562500000000019
 40
0.1875000000000023
 40
0.1875000000000023
 40
0.2500000000000023
 40
0.2500000000000023
 40
0.3125000000000023
 40
0.3125000000000023
 40
0.3750000000000022
 40
0.3750000000000022
 40
0.4375000000000022
 40
0.4375000000000022
 40
0.5000000000000021
 40
0.5000000000000021
 40
0.6250000000000022
 40
0.6250000000000022
 40
0.6875000000000024
 40
0.6875000000000024
 40
0.7500000000000027
 40
0.7500000000000027
 40
0.7812500000000028
 40
0.7812500000000028
 40
0.8125000000000029
 40
0.8125000000000029
 40
0.8750000000000019
 40
0.8750000000000019
 40
0.937500000000001
 40
0.937500000000001
 40
1.0
 40
1.0
 40
1.0
 40
1.0
 10
103.0998569367922
 20
210.4692081203049
 30
0.0
 10
103.1083880380059
 20
210.4415260785883
 30
0.0
 10
103.1166890238436
 20
210.4127529401678
 30
0.0
 10
103.1329478959799
 20
210.3535377020607
 30
0.0
 10
103.140905078743
 20
210.3230925199842
 30
0.0
 10
103.1643775424773
 20
210.2297606199797
 30
0.0
 10
103.1794999057279
 20
210.1649043548432
 30
0.0
 10
103.2090730868086
 20
210.0315976531886
 30
0.0
 10
103.2235197830855
 20
209.9631291827459
 30
0.0
 10
103.2519478424419
 20
209.8235174923245
 30
0.0
 10
103.2659275048217
 20
209.7523668369445
 30
0.0
 10
103.293549034779
 20
209.6079713729097
 30
0.0
 10
103.3071900909508
 20
209.5347230176046
 30
0.0
 10
103.3342163660183
 20
209.3865185549772
 30
0.0
 10
103.3476144260337
 20
209.3114823266604
 30
0.0
 10
103.3873039447401
 20
209.0853729645231
 30
0.0
 10
103.4131630940748
 20
208.9329778074068
 30
0.0
 10
103.4640274334613
 20
208.6257271981415
 30
0.0
 10
103.4890276295356
 20
208.470861612814
 30
0.0
 10
103.5382854509878
 20
208.1590777251264
 30
0.0
 10
103.5625410901065
 20
208.0021552870798
 30
0.0
 10
103.6103001816749
 20
207.6864562269436
 30
0.0
 10
103.6338027959363
 20
207.5276777270067
 30
0.0
 10
103.6799620082389
 20
207.2083350074478
 30
0.0
 10
103.7026183057023
 20
207.0477699276657
 30
0.0
 10
103.7690739048134
 20
206.5633595347121
 30
0.0
 10
103.8113949017019
 20
206.2368349811399
 30
0.0
 10
103.8703236919349
 20
205.7408458236036
 30
0.0
 10
103.8891995165634
 20
205.5744734868113
 30
0.0
 10
103.9250358178934
 20
205.2393867922899
 30
0.0
 10
103.9419972227909
 20
205.0706733149111
 30
0.0
 10
103.9656402067524
 20
204.8155794973526
 30
0.0
 10
103.9732270781765
 20
204.7301297311535
 30
0.0
 10
103.9876898698317
 20
204.5589343485224
 30
0.0
 10
103.9945639364619
 20
204.4732195004038
 30
0.0
 10
104.0140055283916
 20
204.215698089611
 30
0.0
 10
104.025397260793
 20
204.0435162454852
 30
0.0
 10
104.044361142041
 20
203.697982324682
 30
0.0
 10
104.0519354837772
 20
203.5246310669891
 30
0.0
 10
104.0624071461533
 20
203.1765307876729
 30
0.0
 10
104.0653085322016
 20
203.0017833190676
 30
0.0
 10
104.0653085322016
 20
202.8261763091817
 30
0.0
  0
SPLINE
  5
133
330
1F
100
AcDbEntity
  8
1
  6
Continuous
 62
   252
370
    18
100
AcDbSpline
210
0.0
220
0.0
230
1.0
 70
     8
 71
     3
 72
    48
 73
    44
 74
     0
 42
0.000000001
 43
0.0000000001
 40
0.0
 40
0.0
 40
0.0
 40
0.0
 40
0.0624999999999984
 40
0.0624999999999984
 40
0.1249999999999968
 40
0.1249999999999968
 40
0.1562499999999961
 40
0.1562499999999961
 40
0.1718749999999949
 40
0.1718749999999949
 40
0.1874999999999937
 40
0.1874999999999937
 40
0.2499999999999908
 40
0.2499999999999908
 40
0.312499999999988
 40
0.312499999999988
 40
0.3437499999999873
 40
0.3593749999999876
 40
0.3593749999999876
 40
0.3749999999999878
 40
0.3749999999999878
 40
0.4374999999999889
 40
0.4374999999999889
 40
0.4999999999999899
 40
0.4999999999999899
 40
0.5312499999999906
 40
0.5468749999999907
 40
0.5468749999999907
 40
0.5624999999999909
 40
0.5624999999999909
 40
0.6249999999999921
 40
0.6249999999999921
 40
0.6874999999999934
 40
0.6874999999999934
 40
0.7499999999999948
 40
0.7499999999999948
 40
0.7812499999999957
 40
0.7812499999999957
 40
0.8124999999999966
 40
0.8124999999999966
 40
0.8749999999999976
 40
0.8749999999999976
 40
1.0
 40
1.0
 40
1.0
 40
1.0
 10
104.0653085322016
 20
200.6231880252101
 30
0.0
 10
104.0653085322016
 20
200.4970850602382
 30
0.0
 10
104.0683214647375
 20
200.3722634832198
 30
0.0
 10
104.0801792185066
 20
200.1250792912555
 30
0.0
 10
104.0890250111868
 20
200.0027170731979
 30
0.0
 10
104.1067635614525
 20
199.8210119271968
 30
0.0
 10
104.1134237806309
 20
199.7607506089567
 30
0.0
 10
104.1245690479791
 20
199.670824745288
 30
0.0
 10
104.1284767834325
 20
199.640927187439
 30
0.0
 10
104.1366851394508
 20
199.5812889984981
 30
0.0
 10
104.1409932905117
 20
199.5515000471942
 30
0.0
 10
104.1634316285729
 20
199.403644318047
 30
0.0
 10
104.1842136769705
 20
199.2889425054917
 30
0.0
 10
104.2314793826238
 20
199.0663675253789
 30
0.0
 10
104.2579638768154
 20
198.9584959569094
 30
0.0
 10
104.3021785620845
 20
198.8017390761781
 30
0.0
 10
104.3254105914905
 20
198.7246258170987
 30
0.0
 10
104.3503938658412
 20
198.6494189752661
 30
0.0
 10
104.367447451086
 20
198.5997072050675
 30
0.0
 10
104.3761763299275
 20
198.5750585202673
 30
0.0
 10
104.4205671534442
 20
198.4536045001211
 30
0.0
 10
104.4586621668054
 20
198.3615568851762
 30
0.0
 10
104.5401271753721
 20
198.1871030219579
 30
0.0
 10
104.5834977906523
 20
198.1046993066179
 30
0.0
 10
104.6526961515137
 20
197.9881025827785
 30
0.0
 10
104.6883324501304
 20
197.9315594458111
 30
0.0
 10
104.7255727000737
 20
197.8776321366547
 30
0.0
 10
104.7507622725799
 20
197.8422616333327
 30
0.0
 10
104.7635339420526
 20
197.8248747809697
 30
0.0
 10
104.8279789095583
 20
197.7398166884125
 30
0.0
 10
104.8816635317736
 20
197.6773985266778
 30
0.0
 10
104.9933493348947
 20
197.5630201109926
 30
0.0
 10
105.0513508448985
 20
197.5110625963264
 30
0.0
 10
105.1717902590719
 20
197.4170958367438
 30
0.0
 10
105.2342282287122
 20
197.3750880372259
 30
0.0
 10
105.3313425967511
 20
197.3193198967524
 30
0.0
 10
105.3641137990635
 20
197.3020423978925
 30
0.0
 10
105.4303419652285
 20
197.2700547934113
 30
0.0
 10
105.4638173573056
 20
197.2553341717033
 30
0.0
 10
105.5653285773607
 20
197.2148386727933
 30
0.0
 10
105.6344489454926
 20
197.1927231160465
 30
0.0
 10
105.8461770142469
 20
197.1400851446035
 30
0.0
 10
105.993143911122
 20
197.1231880252101
 30
0.0
 10
106.1460961364941
 20
197.1231880252101
 30
0.0
  0
SPLINE
  5
134
330
1F
100
AcDbEntity
  8
1
  6
Continuous
 62
   252
370
    18
100
AcDbSpline
210
0.0
220
0.0
230
1.0
 70
     8
 71
     3
 72
    41
 73
    37
 74
     0
 42
0.000000001
 43
0.0000000001
 40
0.0
 40
0.0
 40
0.0
 40
0.0
 40
0.0156249999999993
 40
0.0156249999999993
 40
0.0312499999999986
 40
0.0312499999999986
 40
0.0624999999999971
 40
0.0624999999999971
 40
0.1249999999999949
 40
0.1249999999999949
 40
0.2499999999999897
 40
0.2499999999999897
 40
0.3124999999999876
 40
0.3124999999999876
 40
0.3437499999999865
 40
0.3437499999999865
 40
0.3749999999999855
 40
0.3749999999999855
 40
0.4999999999999838
 40
0.4999999999999838
 40
0.562499999999986
 40
0.5937499999999887
 40
0.5937499999999887
 40
0.6249999999999913
 40
0.6249999999999913
 40
0.7499999999999905
 40
0.7499999999999905
 40
0.7812499999999908
 40
0.7812499999999908
 40
0.8124999999999911
 40
0.8124999999999911
 40
0.874999999999994
 40
0.874999999999994
 40
0.937499999999997
 40
0.937499999999997
 40
1.0
 40
1.0
 40
1.0
 40
1.0
 10
144.216519719228
 20
194.9678036989555
 30
0.0
 10
144.2192891341235
 20
194.9752183831839
 30
0.0
 10
144.2220271474613
 20
194.9827881588707
 30
0.0
 10
144.2273340781923
 20
194.9979616970821
 30
0.0
 10
144.2299141604205
 20
195.0055939505208
 30
0.0
 10
144.2374340910055
 20
195.0286274585048
 30
0.0
 10
144.242155162917
 20
195.0441723806081
 30
0.0
 10
144.2553954724629
 20
195.0912136085094
 30
0.0
 10
144.2630082022739
 20
195.1231579996737
 30
0.0
 10
144.2822238664951
 20
195.220744253634
 30
0.0
 10
144.2902267474393
 20
195.2881279794881
 30
0.0
 10
144.2947131050782
 20
195.3928932099601
 30
0.0
 10
144.2949502307657
 20
195.4284325428955
 30
0.0
 10
144.2933237153453
 20
195.4827212508722
 30
0.0
 10
144.292448247445
 20
195.5010105229733
 30
0.0
 10
144.2900299653275
 20
195.5377185181995
 30
0.0
 10
144.2884879703783
 20
195.5561484053993
 30
0.0
 10
144.2791017776052
 20
195.6486823463648
 30
0.0
 10
144.2662670533963
 20
195.7239311126104
 30
0.0
 10
144.2383670540198
 20
195.8388322911454
 30
0.0
 10
144.2222442829884
 20
195.8967923743795
 30
0.0
 10
144.2026124301544
 20
195.9555828940275
 30
0.0
 10
144.1887051942322
 20
195.99497124814
 30
0.0
 10
144.1813249056878
 20
196.0148053196284
 30
0.0
 10
144.1425574699706
 20
196.1137609706873
 30
0.0
 10
144.1055865072098
 20
196.1924548826012
 30
0.0
 10
144.0509411177922
 20
196.2901727787695
 30
0.0
 10
144.0395864495283
 20
196.3096835356024
 30
0.0
 10
144.0159827579649
 20
196.3486362756457
 30
0.0
 10
144.0037004762629
 20
196.3681284231205
 30
0.0
 10
143.965683379666
 20
196.4261162595687
 30
0.0
 10
143.938898330833
 20
196.463963335014
 30
0.0
 10
143.8823423988492
 20
196.537974982961
 30
0.0
 10
143.8525723089932
 20
196.5741400096951
 30
0.0
 10
143.7898421943615
 20
196.6446712896845
 30
0.0
 10
143.7568837551219
 20
196.6790384517169
 30
0.0
 10
143.7221614484647
 20
196.7124097578796
 30
0.0
  0
SPLINE
  5
135
330
1F
100
AcDbEntity
  8
1
  6
Continuous
 62
   252
370
    18
100
AcDbSpline
210
0.0
220
0.0
230
1.0
 70
     8
 71
     3
 72
    22
 73
    18
 74
     0
 42
0.000000001
 43
0.0000000001
 40
0.0
 40
0.0
 40
0.0
 40
0.0
 40
0.2499999999999969
 40
0.2499999999999969
 40
0.3749999999999953
 40
0.3749999999999953
 40
0.4374999999999958
 40
0.4374999999999958
 40
0.4999999999999963
 40
0.4999999999999963
 40
0.7500000000000034
 40
0.7500000000000034
 40
0.8750000000000046
 40
0.8750000000000046
 40
0.9375000000000023
 40
0.9375000000000023
 40
1.0
 40
1.0
 40
1.0
 40
1.0
 10
142.6880209037636
 20
197.1231880252101
 30
0.0
 10
142.7838578694339
 20
197.1231880252101
 30
0.0
 10
142.8781912734757
 20
197.1142766460373
 30
0.0
 10
143.0175108993855
 20
197.0879862058278
 30
0.0
 10
143.0635847517197
 20
197.077053363757
 30
0.0
 10
143.1321321912101
 20
197.0573152767317
 30
0.0
 10
143.1548872815702
 20
197.0501784580928
 30
0.0
 10
143.200204806082
 20
197.0347629770152
 30
0.0
 10
143.2226835606626
 20
197.0265101218085
 30
0.0
 10
143.3334591965222
 20
196.9828146480632
 30
0.0
 10
143.4176600897785
 20
196.9399089230255
 30
0.0
 10
143.5373266234998
 20
196.8636166342388
 30
0.0
 10
143.5761020762021
 20
196.8361832678247
 30
0.0
 10
143.6325195785064
 20
196.7918933548441
 30
0.0
 10
143.6510308318761
 20
196.7766044419415
 30
0.0
 10
143.6871921894704
 20
196.7451818232514
 30
0.0
 10
143.7048766639365
 20
196.7290220135728
 30
0.0
 10
143.7221614484647
 20
196.7124097578796
 30
0.0
  0
SPLINE
  5
136
330
1F
100
AcDbEntity
  8
1
  6
Continuous
 62
   252
370
    13
100
AcDbSpline
210
0.0
220
0.0
230
1.0
 70
     8
 71
     3
 72
     8
 73
     4
 74
     0
 42
0.000000001
 43
0.0000000001
 40
0.0
 40
0.0
 40
0.0
 40
0.0
 40
1.0
 40
1.0
 40
1.0
 40
1.0
 10
143.7221614484647
 20
196.7124097578796
 30
0.0
 10
144.1389144499312
 20
197.345573829277
 30
0.0
 10
144.5552724299456
 20
197.9789977360578
 30
0.0
 10
144.9712905488823
 20
198.6126448942197
 30
0.0
  0
SPLINE
  5
137
330
1F
100
AcDbEntity
  8
1
  6
Continuous
 62
   252
370
    18
100
AcDbSpline
210
0.0
220
0.0
230
1.0
 70
     8
 71
     3
 72
    14
 73
    10
 74
     0
 42
0.000000001
 43
0.0000000001
 40
0.0
 40
0.0
 40
0.0
 40
0.0
 40
0.1614036048051145
 40
0.1614036048051145
 40
0.3230597974111759
 40
0.3230597974111759
 40
0.6617800384810598
 40
0.6617800384810598
 40
1.0
 40
1.0
 40
1.0
 40
1.0
 10
124.1122398586643
 20
240.643407939078
 30
0.0
 10
124.1171840814288
 20
240.568718068342
 30
0.0
 10
124.1073631943326
 20
240.4372634343052
 30
0.0
 10
124.0579205998233
 20
240.0587530424897
 30
0.0
 10
124.0331799739548
 20
239.8693498753576
 30
0.0
 10
123.956600005446
 20
239.2830878845941
 30
0.0
 10
123.9329296786464
 20
239.0315405553103
 30
0.0
 10
123.9434940435757
 20
238.8172156198943
 30
0.0
 10
123.9664158310983
 20
238.7111248388399
 30
0.0
 10
124.0080930173748
 20
238.6081593790932
 30
0.0
  0
SPLINE
  5
138
330
1F
100
AcDbEntity
  8
1
  6
Continuous
 62
   252
370
    18
100
AcDbSpline
210
0.0
220
0.0
230
1.0
 70
     8
 71
     3
 72
    10
 73
     6
 74
     0
 42
0.000000001
 43
0.0000000001
 40
0.0
 40
0.0
 40
0.0
 40
0.0
 40
0.6384199376092685
 40
0.6384199376092685
 40
1.0
 40
1.0
 40
1.0
 40
1.0
 10
123.5974428530952
 20
239.9449291671278
 30
0.0
 10
123.4320226919929
 20
239.9024257340864
 30
0.0
 10
123.1883817648322
 20
239.8800725578832
 30
0.0
 10
122.6868765510419
 20
239.8748616456588
 30
0.0
 10
122.5567012785359
 20
239.8623549370594
 30
0.0
 10
122.4785660278368
 20
239.8409571253462
 30
0.0
  0
SPLINE
  5
139
330
1F
100
AcDbEntity
  8
1
  6
Continuous
 62
   252
370
    18
100
AcDbSpline
210
0.0
220
0.0
230
1.0
 70
     8
 71
     3
 72
    18
 73
    14
 74
     0
 42
0.000000001
 43
0.0000000001
 40
0.0
 40
0.0
 40
0.0
 40
0.0
 40
0.1214715444824064
 40
0.1214715444824064
 40
0.2441919994700467
 40
0.2441919994700467
 40
0.4334476408967859
 40
0.4334476408967859
 40
0.6236546268075578
 40
0.6236546268075578
 40
0.8118273134037773
 40
0.8118273134037773
 40
1.0
 40
1.0
 40
1.0
 40
1.0
 10
122.4785660278368
 20
239.8409571253462
 30
0.0
 10
122.4012181742561
 20
239.8185534845139
 30
0.0
 10
122.3373720433699
 20
239.7799385760039
 30
0.0
 10
122.2416136874033
 20
239.6690108775812
 30
0.0
 10
122.2123961377025
 20
239.6039295481348
 30
0.0
 10
122.1879261124294
 20
239.4165979781432
 30
0.0
 10
122.2197822135673
 20
239.3158183652465
 30
0.0
 10
122.3757115026692
 20
239.1415584883981
 30
0.0
 10
122.4977087936109
 20
239.087180546574
 30
0.0
 10
122.8337619879707
 20
239.0432838869802
 30
0.0
 10
122.986553338856
 20
239.0594446900288
 30
0.0
 10
123.2655109666132
 20
239.1692882094164
 30
0.0
 10
123.3741409165269
 20
239.255328856866
 30
0.0
 10
123.4518060307921
 20
239.3716005647255
 30
0.0
  0
SPLINE
  5
13A
330
1F
100
AcDbEntity
  8
1
  6
Continuous
 62
   252
370
    18
100
AcDbSpline
210
0.0
220
0.0
230
1.0
 70
     8
 71
     3
 72
    16
 73
    12
 74
     0
 42
0.000000001
 43
0.0000000001
 40
0.0
 40
0.0
 40
0.0
 40
0.0
 40
0.2017302927074909
 40
0.2017302927074909
 40
0.4021551280973176
 40
0.4021551280973176
 40
0.6017551699258714
 40
0.6017551699258714
 40
0.8001995450780559
 40
0.8001995450780559
 40
1.0
 40
1.0
 40
1.0
 40
1.0
 10
122.2087865356834
 20
241.109662120339
 30
0.0
 10
122.3107937982676
 20
241.2083065392437
 30
0.0
 10
122.4500894781147
 20
241.2758938853267
 30
0.0
 10
122.7987443532155
 20
241.3509584226158
 30
0.0
 10
122.9970241296953
 20
241.3552480166059
 30
0.0
 10
123.4351579986859
 20
241.2980171566516
 30
0.0
 10
123.6088551050572
 20
241.2491418160916
 30
0.0
 10
123.8695016977515
 20
241.1124538142598
 30
0.0
 10
123.9613950276074
 20
241.0360410230301
 30
0.0
 10
124.0700964114217
 20
240.8659994522375
 30
0.0
 10
124.1022537944633
 20
240.7639051983878
 30
0.0
 10
124.1122398586643
 20
240.643407939078
 30
0.0
  0
SPLINE
  5
13B
330
1F
100
AcDbEntity
  8
1
  6
Continuous
 62
   252
370
    18
100
AcDbSpline
210
0.0
220
0.0
230
1.0
 70
     8
 71
     3
 72
     8
 73
     4
 74
     0
 42
0.000000001
 43
0.0000000001
 40
0.0
 40
0.0
 40
0.0
 40
0.0
 40
1.0
 40
1.0
 40
1.0
 40
1.0
 10
123.4518060307921
 20
239.3716005647255
 30
0.0
 10
123.510518753226
 20
239.4623556550039
 30
0.0
 10
123.5525618114805
 20
239.6013399842523
 30
0.0
 10
123.5770318367536
 20
239.7886715542439
 30
0.0
  0
SPLINE
  5
13C
330
1F
100
AcDbEntity
  8
1
  6
Continuous
 62
   252
370
    18
100
AcDbSpline
210
0.0
220
0.0
230
1.0
 70
    24
 71
     3
 72
     8
 73
     4
 74
     0
 42
0.000000001
 43
0.0000000001
 40
0.0
 40
0.0
 40
0.0
 40
0.0
 40
1.0
 40
1.0
 40
1.0
 40
1.0
 10
123.5770318367536
 20
239.7886715542439
 30
0.0
 10
123.5838355088675
 20
239.8407574252052
 30
0.0
 10
123.5906391809813
 20
239.8928432961665
 30
0.0
 10
123.5974428530952
 20
239.9449291671278
 30
0.0
  0
SPLINE
  5
13D
330
1F
100
AcDbEntity
  8
1
  6
Continuous
 62
   252
370
    18
100
AcDbSpline
210
0.0
220
0.0
230
1.0
 70
     8
 71
     3
 72
     8
 73
     4
 74
     0
 42
0.000000001
 43
0.0000000001
 40
0.0
 40
0.0
 40
0.0
 40
0.0
 40
1.0
 40
1.0
 40
1.0
 40
1.0
 10
123.5555052475516
 20
238.6672782674171
 30
0.0
 10
123.5218180041416
 20
238.7610732633195
 30
0.0
 10
123.506478889476
 20
238.8687251195327
 30
0.0
 10
123.5092559601873
 20
238.988458181365
 30
0.0
  0
SPLINE
  5
13E
330
1F
100
AcDbEntity
  8
1
  6
Continuous
 62
   252
370
    18
100
AcDbSpline
210
0.0
220
0.0
230
1.0
 70
     8
 71
     3
 72
    20
 73
    16
 74
     0
 42
0.000000001
 43
0.0000000001
 40
0.0
 40
0.0
 40
0.0
 40
0.0
 40
0.1216394651645662
 40
0.1216394651645662
 40
0.2439309049911954
 40
0.2439309049911954
 40
0.445161792748241
 40
0.445161792748241
 40
0.6463926805052868
 40
0.6463926805052868
 40
0.763565096161283
 40
0.763565096161283
 40
0.881519242448378
 40
0.881519242448378
 40
1.0
 40
1.0
 40
1.0
 40
1.0
 10
123.5092559601873
 20
238.988458181365
 30
0.0
 10
123.3309445891762
 20
238.8754005677415
 30
0.0
 10
123.1640595538647
 20
238.8005813449272
 30
0.0
 10
122.8525414774245
 20
238.7290040248809
 30
0.0
 10
122.6898826978506
 20
238.7225590017242
 30
0.0
 10
122.2381982968294
 20
238.781559888275
 30
0.0
 10
122.0311070011069
 20
238.8772371903372
 30
0.0
 10
121.7646372130874
 20
239.1865492957164
 30
0.0
 10
121.7112527403651
 20
239.3686999497676
 30
0.0
 10
121.7547421217746
 20
239.701635204492
 30
0.0
 10
121.7983783272774
 20
239.8106132206861
 30
0.0
 10
121.9391122414789
 20
239.9987952853403
 30
0.0
 10
122.0244093173909
 20
240.0709434281518
 30
0.0
 10
122.22514774991
 20
240.1696110023836
 30
0.0
 10
122.3347345568404
 20
240.2028758856054
 30
0.0
 10
122.4545407441172
 20
240.2197334431019
 30
0.0
  0
SPLINE
  5
13F
330
1F
100
AcDbEntity
  8
1
  6
Continuous
 62
   252
370
    18
100
AcDbSpline
210
0.0
220
0.0
230
1.0
 70
     8
 71
     3
 72
     8
 73
     4
 74
     0
 42
0.000000001
 43
0.0000000001
 40
0.0
 40
0.0
 40
0.0
 40
0.0
 40
1.0
 40
1.0
 40
1.0
 40
1.0
 10
121.9618134801456
 20
240.7030764043407
 30
0.0
 10
122.0239686470689
 20
240.8764556246296
 30
0.0
 10
122.1059918759809
 20
241.0120235305534
 30
0.0
 10
122.2087865356834
 20
241.109662120339
 30
0.0
  0
SPLINE
  5
140
330
1F
100
AcDbEntity
  8
1
  6
Continuous
 62
   252
370
    18
100
AcDbSpline
210
0.0
220
0.0
230
1.0
 70
    24
 71
     3
 72
     8
 73
     4
 74
     0
 42
0.000000001
 43
0.0000000001
 40
0.0
 40
0.0
 40
0.0
 40
0.0
 40
1.0
 40
1.0
 40
1.0
 40
1.0
 10
124.0080930173748
 20
238.6081593790932
 30
0.0
 10
123.8572304274337
 20
238.6278656752012
 30
0.0
 10
123.7063678374926
 20
238.6475719713092
 30
0.0
 10
123.5555052475516
 20
238.6672782674171
 30
0.0
  0
SPLINE
  5
141
330
1F
100
AcDbEntity
  8
1
  6
Continuous
 62
   252
370
    18
100
AcDbSpline
210
0.0
220
0.0
230
1.0
 70
     8
 71
     3
 72
    16
 73
    12
 74
     0
 42
0.000000001
 43
0.0000000001
 40
0.0
 40
0.0
 40
0.0
 40
0.0
 40
0.017397732214291
 40
0.017397732214291
 40
0.2179833506849547
 40
0.2179833506849547
 40
0.4906750353164281
 40
0.4906750353164281
 40
0.7453375176582121
 40
0.7453375176582121
 40
1.0
 40
1.0
 40
1.0
 40
1.0
 10
123.6410482061885
 20
240.2787522491981
 30
0.0
 10
123.6505090749207
 20
240.3371128504834
 30
0.0
 10
123.6562832544406
 20
240.3742835972394
 30
0.0
 10
123.6809852230813
 20
240.5633908219229
 30
0.0
 10
123.655434350546
 20
240.6913390772241
 30
0.0
 10
123.4854918864143
 20
240.8839818166737
 30
0.0
 10
123.3266688212089
 20
240.9528039953148
 30
0.0
 10
122.903892221853
 20
241.0080288251264
 30
0.0
 10
122.7494101050474
 20
240.9929918529699
 30
0.0
 10
122.5359589177723
 20
240.8782035153027
 30
0.0
 10
122.4483567466847
 20
240.7632298269473
 30
0.0
 10
122.3780712605429
 20
240.5909126226163
 30
0.0
  0
SPLINE
  5
142
330
1F
100
AcDbEntity
  8
1
  6
Continuous
 62
   252
370
    18
100
AcDbSpline
210
0.0
220
0.0
230
1.0
 70
    24
 71
     3
 72
     8
 73
     4
 74
     0
 42
0.000000001
 43
0.0000000001
 40
0.0
 40
0.0
 40
0.0
 40
0.0
 40
1.0
 40
1.0
 40
1.0
 40
1.0
 10
122.3780712605429
 20
240.5909126226163
 30
0.0
 10
122.2393186670771
 20
240.6283005498578
 30
0.0
 10
122.1005660736114
 20
240.6656884770993
 30
0.0
 10
121.9618134801456
 20
240.7030764043407
 30
0.0
  0
SPLINE
  5
143
330
1F
100
AcDbEntity
  8
1
  6
Continuous
 62
   252
370
    18
100
AcDbSpline
210
0.0
220
0.0
230
1.0
 70
     8
 71
     3
 72
    10
 73
     6
 74
     0
 42
0.000000001
 43
0.0000000001
 40
0.0
 40
0.0
 40
0.0
 40
0.0
 40
0.3293446934494007
 40
0.3293446934494007
 40
1.0
 40
1.0
 40
1.0
 40
1.0
 10
122.4545407441172
 20
240.2197334431019
 30
0.0
 10
122.5432600724052
 20
240.2307189583055
 30
0.0
 10
122.6743217627054
 20
240.2352705628274
 30
0.0
 10
123.2035770523198
 20
240.229196962819
 30
0.0
 10
123.4683095276542
 20
240.2435256235361
 30
0.0
 10
123.6410482061885
 20
240.2787522491981
 30
0.0
  0
SPLINE
  5
144
330
1F
100
AcDbEntity
  8
1
  6
Continuous
 62
   252
370
    18
100
AcDbSpline
210
0.0
220
0.0
230
1.0
 70
     8
 71
     3
 72
    12
 73
     8
 74
     0
 42
0.000000001
 43
0.0000000001
 40
0.0
 40
0.0
 40
0.0
 40
0.0
 40
0.3634779686132145
 40
0.3634779686132145
 40
0.7280876759124407
 40
0.7280876759124407
 40
1.0
 40
1.0
 40
1.0
 40
1.0
 10
115.9129898847635
 20
239.8116004830331
 30
0.0
 10
115.9652667737085
 20
239.5376004859342
 30
0.0
 10
116.0723271309165
 20
239.3366618247329
 30
0.0
 10
116.3965187048859
 20
239.0805090104718
 30
0.0
 10
116.5844980943127
 20
239.030546810448
 30
0.0
 10
116.9566950734923
 20
239.0790943402735
 30
0.0
 10
117.0868765783326
 20
239.1376104608841
 30
0.0
 10
117.1891462109347
 20
239.2340217853105
 30
0.0
  0
SPLINE
  5
145
330
1F
100
AcDbEntity
  8
1
  6
Continuous
 62
   252
370
    18
100
AcDbSpline
210
0.0
220
0.0
230
1.0
 70
     8
 71
     3
 72
    12
 73
     8
 74
     0
 42
0.000000001
 43
0.0000000001
 40
0.0
 40
0.0
 40
0.0
 40
0.0
 40
0.252856032876338
 40
0.252856032876338
 40
0.6449855879757963
 40
0.6449855879757963
 40
1.0
 40
1.0
 40
1.0
 40
1.0
 10
117.3198985612771
 20
240.35177756261
 30
0.0
 10
117.2733653827222
 20
240.5606110890984
 30
0.0
 10
117.1975291651417
 20
240.7123481784971
 30
0.0
 10
116.9342439158565
 20
240.9520941262795
 30
0.0
 10
116.7442405298729
 20
241.0107932916493
 30
0.0
 10
116.3259706236589
 20
240.9562362375007
 30
0.0
 10
116.1665096377714
 20
240.8686183307204
 30
0.0
 10
116.0480246005943
 20
240.7204294719296
 30
0.0
  0
SPLINE
  5
146
330
1F
100
AcDbEntity
  8
1
  6
Continuous
 62
   252
370
    18
100
AcDbSpline
210
0.0
220
0.0
230
1.0
 70
     8
 71
     3
 72
     8
 73
     4
 74
     0
 42
0.000000001
 43
0.0000000001
 40
0.0
 40
0.0
 40
0.0
 40
0.0
 40
1.0
 40
1.0
 40
1.0
 40
1.0
 10
116.0480246005943
 20
240.7204294719296
 30
0.0
 10
115.9296553700277
 20
240.571352764246
 30
0.0
 10
115.87748784203
 20
240.3866663260987
 30
0.0
 10
115.8916378232116
 20
240.1654823085949
 30
0.0
  0
SPLINE
  5
147
330
1F
100
AcDbEntity
  8
1
  6
Continuous
 62
   252
370
    18
100
AcDbSpline
210
0.0
220
0.0
230
1.0
 70
    24
 71
     3
 72
     8
 73
     4
 74
     0
 42
0.000000001
 43
0.0000000001
 40
0.0
 40
0.0
 40
0.0
 40
0.0
 40
1.0
 40
1.0
 40
1.0
 40
1.0
 10
115.8916378232116
 20
240.1654823085949
 30
0.0
 10
116.3677247359001
 20
240.2275807265999
 30
0.0
 10
116.8438116485886
 20
240.2896791446049
 30
0.0
 10
117.3198985612771
 20
240.35177756261
 30
0.0
  0
SPLINE
  5
148
330
1F
100
AcDbEntity
  8
1
  6
Continuous
 62
   252
370
    18
100
AcDbSpline
210
0.0
220
0.0
230
1.0
 70
    24
 71
     3
 72
     8
 73
     4
 74
     0
 42
0.000000001
 43
0.0000000001
 40
0.0
 40
0.0
 40
0.0
 40
0.0
 40
1.0
 40
1.0
 40
1.0
 40
1.0
 10
117.8209510984222
 20
240.0604654902942
 30
0.0
 10
117.1849640272026
 20
239.9775104878738
 30
0.0
 10
116.5489769559831
 20
239.8945554854535
 30
0.0
 10
115.9129898847635
 20
239.8116004830331
 30
0.0
  0
SPLINE
  5
149
330
1F
100
AcDbEntity
  8
1
  6
Continuous
 62
   252
370
    18
100
AcDbSpline
210
0.0
220
0.0
230
1.0
 70
     8
 71
     3
 72
     8
 73
     4
 74
     0
 42
0.000000001
 43
0.0000000001
 40
0.0
 40
0.0
 40
0.0
 40
0.0
 40
1.0
 40
1.0
 40
1.0
 40
1.0
 10
117.1891462109347
 20
239.2340217853105
 30
0.0
 10
117.2903966462
 20
239.3312031248195
 30
0.0
 10
117.3628087563427
 20
239.4733824592872
 30
0.0
 10
117.4052475374156
 20
239.6622176526891
 30
0.0
  0
SPLINE
  5
14A
330
1F
100
AcDbEntity
  8
1
  6
Continuous
 62
   252
370
    18
100
AcDbSpline
210
0.0
220
0.0
230
1.0
 70
     8
 71
     3
 72
    24
 73
    20
 74
     0
 42
0.000000001
 43
0.0000000001
 40
0.0
 40
0.0
 40
0.0
 40
0.0
 40
0.1029212031220383
 40
0.1029212031220383
 40
0.2061562748853231
 40
0.2061562748853231
 40
0.3360630217242289
 40
0.3360630217242289
 40
0.46570747591773
 40
0.46570747591773
 40
0.599570296299739
 40
0.599570296299739
 40
0.7334331166817475
 40
0.7334331166817475
 40
0.8628452550561704
 40
0.8628452550561704
 40
0.9922573934305919
 40
0.9922573934305919
 40
1.0
 40
1.0
 40
1.0
 40
1.0
 10
117.8603935408352
 20
239.6665044401109
 30
0.0
 10
117.8226095905212
 20
239.3997193901675
 30
0.0
 10
117.717674422596
 20
239.1828674867839
 30
0.0
 10
117.3729768566478
 20
238.8485209374682
 30
0.0
 10
117.1379472935753
 20
238.7460690991271
 30
0.0
 10
116.4667279840353
 20
238.6585185781068
 30
0.0
 10
116.1557083863165
 20
238.7326258977376
 30
0.0
 10
115.6578706048786
 20
239.12953619654
 30
0.0
 10
115.506830077597
 20
239.431753613926
 30
0.0
 10
115.3983192835329
 20
240.2636680265481
 30
0.0
 10
115.4665878969559
 20
240.6066656755727
 30
0.0
 10
115.8483350756389
 20
241.1314127602495
 30
0.0
 10
116.1212302446957
 20
241.2861977995805
 30
0.0
 10
116.8159377131159
 20
241.3768119996674
 30
0.0
 10
117.1109278909848
 20
241.2988079736662
 30
0.0
 10
117.6043116505757
 20
240.8972381738666
 30
0.0
 10
117.7546405307263
 20
240.5899769318773
 30
0.0
 10
117.8120806095479
 20
240.1496038810122
 30
0.0
 10
117.8161569030745
 20
240.1113085448085
 30
0.0
 10
117.8209510984222
 20
240.0604654902942
 30
0.0
  0
SPLINE
  5
14B
330
1F
100
AcDbEntity
  8
1
  6
Continuous
 62
   252
370
    18
100
AcDbSpline
210
0.0
220
0.0
230
1.0
 70
    24
 71
     3
 72
     8
 73
     4
 74
     0
 42
0.000000001
 43
0.0000000001
 40
0.0
 40
0.0
 40
0.0
 40
0.0
 40
1.0
 40
1.0
 40
1.0
 40
1.0
 10
117.4052475374156
 20
239.6622176526891
 30
0.0
 10
117.5569628718888
 20
239.6636465818297
 30
0.0
 10
117.708678206362
 20
239.6650755109703
 30
0.0
 10
117.8603935408352
 20
239.6665044401109
 30
0.0
  0
SPLINE
  5
14C
330
1F
100
AcDbEntity
  8
1
  6
Continuous
 62
   252
370
    18
100
AcDbSpline
210
0.0
220
0.0
230
1.0
 70
    24
 71
     3
 72
     8
 73
     4
 74
     0
 42
0.000000001
 43
0.0000000001
 40
0.0
 40
0.0
 40
0.0
 40
0.0
 40
1.0
 40
1.0
 40
1.0
 40
1.0
 10
119.1927787792447
 20
240.0068487262942
 30
0.0
 10
119.3297849612973
 20
240.5019754136947
 30
0.0
 10
119.4667911433499
 20
240.9971021010953
 30
0.0
 10
119.6037973254025
 20
241.4922287884958
 30
0.0
  0
SPLINE
  5
14D
330
1F
100
AcDbEntity
  8
1
  6
Continuous
 62
   252
370
    18
100
AcDbSpline
210
0.0
220
0.0
230
1.0
 70
    24
 71
     3
 72
     8
 73
     4
 74
     0
 42
0.000000001
 43
0.0000000001
 40
0.0
 40
0.0
 40
0.0
 40
0.0
 40
1.0
 40
1.0
 40
1.0
 40
1.0
 10
120.7769851637746
 20
238.9564328373508
 30
0.0
 10
120.6254483214108
 20
238.9564469247591
 30
0.0
 10
120.473911479047
 20
238.9564610121675
 30
0.0
 10
120.3223746366832
 20
238.9564750995758
 30
0.0
  0
SPLINE
  5
14E
330
1F
100
AcDbEntity
  8
1
  6
Continuous
 62
   252
370
    18
100
AcDbSpline
210
0.0
220
0.0
230
1.0
 70
    24
 71
     3
 72
     8
 73
     4
 74
     0
 42
0.000000001
 43
0.0000000001
 40
0.0
 40
0.0
 40
0.0
 40
0.0
 40
1.0
 40
1.0
 40
1.0
 40
1.0
 10
120.3223746366832
 20
238.9564750995758
 30
0.0
 10
120.1857652221368
 20
239.4626701157816
 30
0.0
 10
120.0491558075904
 20
239.9688651319874
 30
0.0
 10
119.912546393044
 20
240.4750601481931
 30
0.0
  0
SPLINE
  5
14F
330
1F
100
AcDbEntity
  8
1
  6
Continuous
 62
   252
370
    18
100
AcDbSpline
210
0.0
220
0.0
230
1.0
 70
     8
 71
     3
 72
     8
 73
     4
 74
     0
 42
0.000000001
 43
0.0000000001
 40
0.0
 40
0.0
 40
0.0
 40
0.0
 40
1.0
 40
1.0
 40
1.0
 40
1.0
 10
119.0597178704608
 20
239.4839652125544
 30
0.0
 10
119.0660976695473
 20
239.5108257093743
 30
0.0
 10
119.110755014601
 20
239.6854186422749
 30
0.0
 10
119.1927787792447
 20
240.0068487262942
 30
0.0
  0
SPLINE
  5
150
330
1F
100
AcDbEntity
  8
1
  6
Continuous
 62
   252
370
    18
100
AcDbSpline
210
0.0
220
0.0
230
1.0
 70
    24
 71
     3
 72
     8
 73
     4
 74
     0
 42
0.000000001
 43
0.0000000001
 40
0.0
 40
0.0
 40
0.0
 40
0.0
 40
1.0
 40
1.0
 40
1.0
 40
1.0
 10
119.6037973254025
 20
241.4922287884958
 30
0.0
 10
119.7535120814854
 20
241.4922148704751
 30
0.0
 10
119.9032268375682
 20
241.4922009524545
 30
0.0
 10
120.0529415936511
 20
241.4921870344338
 30
0.0
  0
SPLINE
  5
151
330
1F
100
AcDbEntity
  8
1
  6
Continuous
 62
   252
370
    18
100
AcDbSpline
210
0.0
220
0.0
230
1.0
 70
     8
 71
     3
 72
    10
 73
     6
 74
     0
 42
0.000000001
 43
0.0000000001
 40
0.0
 40
0.0
 40
0.0
 40
0.0
 40
0.7520822760251121
 40
0.7520822760251121
 40
1.0
 40
1.0
 40
1.0
 40
1.0
 10
120.0529415936511
 20
241.4921870344338
 30
0.0
 10
120.1816567714965
 20
241.0018109494953
 30
0.0
 10
120.3103719493419
 20
240.5114348645569
 30
0.0
 10
120.4815170247527
 20
239.859410344673
 30
0.0
 10
120.5253025237546
 20
239.6981207727106
 30
0.0
 10
120.5684102220382
 20
239.5366517692567
 30
0.0
  0
SPLINE
  5
152
330
1F
100
AcDbEntity
  8
1
  6
Continuous
 62
   252
370
    18
100
AcDbSpline
210
0.0
220
0.0
230
1.0
 70
     8
 71
     3
 72
    10
 73
     6
 74
     0
 42
0.000000001
 43
0.0000000001
 40
0.0
 40
0.0
 40
0.0
 40
0.0
 40
0.2504519224872704
 40
0.2504519224872704
 40
1.0
 40
1.0
 40
1.0
 40
1.0
 10
120.5684102220382
 20
239.5366517692567
 30
0.0
 10
120.6176217284618
 20
239.6999029297135
 30
0.0
 10
120.6668332348854
 20
239.8631540901703
 30
0.0
 10
120.863324066079
 20
240.5149804320707
 30
0.0
 10
121.0107061957919
 20
241.0035246174148
 30
0.0
 10
121.1580369230334
 20
241.4920843008086
 30
0.0
  0
SPLINE
  5
153
330
1F
100
AcDbEntity
  8
1
  6
Continuous
 62
   252
370
    18
100
AcDbSpline
210
0.0
220
0.0
230
1.0
 70
    24
 71
     3
 72
     8
 73
     4
 74
     0
 42
0.000000001
 43
0.0000000001
 40
0.0
 40
0.0
 40
0.0
 40
0.0
 40
1.0
 40
1.0
 40
1.0
 40
1.0
 10
121.1580369230334
 20
241.4920843008086
 30
0.0
 10
121.299855971899
 20
241.4920711168012
 30
0.0
 10
121.4416750207645
 20
241.4920579327938
 30
0.0
 10
121.58349406963
 20
241.4920447487864
 30
0.0
  0
SPLINE
  5
154
330
1F
100
AcDbEntity
  8
1
  6
Continuous
 62
   252
370
    18
100
AcDbSpline
210
0.0
220
0.0
230
1.0
 70
    24
 71
     3
 72
     8
 73
     4
 74
     0
 42
0.000000001
 43
0.0000000001
 40
0.0
 40
0.0
 40
0.0
 40
0.0
 40
1.0
 40
1.0
 40
1.0
 40
1.0
 10
121.58349406963
 20
241.4920447487864
 30
0.0
 10
121.3146577676782
 20
240.6468407783079
 30
0.0
 10
121.0458214657264
 20
239.8016368078293
 30
0.0
 10
120.7769851637746
 20
238.9564328373508
 30
0.0
  0
SPLINE
  5
155
330
1F
100
AcDbEntity
  8
1
  6
Continuous
 62
   252
370
    18
100
AcDbSpline
210
0.0
220
0.0
230
1.0
 70
    24
 71
     3
 72
     8
 73
     4
 74
     0
 42
0.000000001
 43
0.0000000001
 40
0.0
 40
0.0
 40
0.0
 40
0.0
 40
1.0
 40
1.0
 40
1.0
 40
1.0
 10
119.912546393044
 20
240.4750601481931
 30
0.0
 10
119.8791548512687
 20
240.6189193116803
 30
0.0
 10
119.8457633094935
 20
240.7627784751674
 30
0.0
 10
119.8123717677182
 20
240.9066376386546
 30
0.0
  0
SPLINE
  5
156
330
1F
100
AcDbEntity
  8
1
  6
Continuous
 62
   252
370
    18
100
AcDbSpline
210
0.0
220
0.0
230
1.0
 70
    24
 71
     3
 72
     8
 73
     4
 74
     0
 42
0.000000001
 43
0.0000000001
 40
0.0
 40
0.0
 40
0.0
 40
0.0
 40
1.0
 40
1.0
 40
1.0
 40
1.0
 10
119.8123717677182
 20
240.9066376386546
 30
0.0
 10
119.6383020979915
 20
240.256615445001
 30
0.0
 10
119.4642324282647
 20
239.6065932513475
 30
0.0
 10
119.290162758538
 20
238.956571057694
 30
0.0
  0
SPLINE
  5
157
330
1F
100
AcDbEntity
  8
1
  6
Continuous
 62
   252
370
    18
100
AcDbSpline
210
0.0
220
0.0
230
1.0
 70
    24
 71
     3
 72
     8
 73
     4
 74
     0
 42
0.000000001
 43
0.0000000001
 40
0.0
 40
0.0
 40
0.0
 40
0.0
 40
1.0
 40
1.0
 40
1.0
 40
1.0
 10
119.290162758538
 20
238.956571057694
 30
0.0
 10
119.1380185540805
 20
238.9565852015649
 30
0.0
 10
118.9858743496231
 20
238.9565993454358
 30
0.0
 10
118.8337301451657
 20
238.9566134893067
 30
0.0
  0
SPLINE
  5
158
330
1F
100
AcDbEntity
  8
1
  6
Continuous
 62
   252
370
    18
100
AcDbSpline
210
0.0
220
0.0
230
1.0
 70
     8
 71
     3
 72
    10
 73
     6
 74
     0
 42
0.000000001
 43
0.0000000001
 40
0.0
 40
0.0
 40
0.0
 40
0.0
 40
0.728909607654972
 40
0.728909607654972
 40
1.0
 40
1.0
 40
1.0
 40
1.0
 10
118.4959688665988
 20
241.4923317762025
 30
0.0
 10
118.6328836546731
 20
241.0043425814352
 30
0.0
 10
118.7697984427474
 20
240.5163533866679
 30
0.0
 10
118.9576335139777
 20
239.8468750458113
 30
0.0
 10
119.0087163239144
 20
239.6654315390032
 30
0.0
 10
119.0597178704608
 20
239.4839652125544
 30
0.0
  0
SPLINE
  5
159
330
1F
100
AcDbEntity
  8
1
  6
Continuous
 62
   252
370
    18
100
AcDbSpline
210
0.0
220
0.0
230
1.0
 70
    24
 71
     3
 72
     8
 73
     4
 74
     0
 42
0.000000001
 43
0.0000000001
 40
0.0
 40
0.0
 40
0.0
 40
0.0
 40
1.0
 40
1.0
 40
1.0
 40
1.0
 10
118.0440914689288
 20
241.492373784346
 30
0.0
 10
118.1947172681521
 20
241.4923597816315
 30
0.0
 10
118.3453430673755
 20
241.492345778917
 30
0.0
 10
118.4959688665988
 20
241.4923317762025
 30
0.0
  0
SPLINE
  5
15A
330
1F
100
AcDbEntity
  8
1
  6
Continuous
 62
   252
370
    18
100
AcDbSpline
210
0.0
220
0.0
230
1.0
 70
    24
 71
     3
 72
     8
 73
     4
 74
     0
 42
0.000000001
 43
0.0000000001
 40
0.0
 40
0.0
 40
0.0
 40
0.0
 40
1.0
 40
1.0
 40
1.0
 40
1.0
 10
118.8337301451657
 20
238.9566134893067
 30
0.0
 10
118.5705172530867
 20
239.8018669209864
 30
0.0
 10
118.3073043610078
 20
240.6471203526662
 30
0.0
 10
118.0440914689288
 20
241.492373784346
 30
0.0
  0
SPLINE
  5
15B
330
1F
100
AcDbEntity
  8
1
  6
Continuous
 62
   252
370
    18
100
AcDbSpline
210
0.0
220
0.0
230
1.0
 70
    24
 71
     3
 72
     8
 73
     4
 74
     0
 42
0.000000001
 43
0.0000000001
 40
0.0
 40
0.0
 40
0.0
 40
0.0
 40
1.0
 40
1.0
 40
1.0
 40
1.0
 10
112.583836520309
 20
240.4808776394063
 30
0.0
 10
112.7126578728955
 20
240.5127623758544
 30
0.0
 10
112.841479225482
 20
240.5446471123024
 30
0.0
 10
112.9703005780685
 20
240.5765318487505
 30
0.0
  0
SPLINE
  5
15C
330
1F
100
AcDbEntity
  8
1
  6
Continuous
 62
   252
370
    18
100
AcDbSpline
210
0.0
220
0.0
230
1.0
 70
    24
 71
     3
 72
     8
 73
     4
 74
     0
 42
0.000000001
 43
0.0000000001
 40
0.0
 40
0.0
 40
0.0
 40
0.0
 40
1.0
 40
1.0
 40
1.0
 40
1.0
 10
112.9703005780685
 20
240.5765318487505
 30
0.0
 10
112.9966889528041
 20
240.4699170071463
 30
0.0
 10
113.0230773275398
 20
240.363302165542
 30
0.0
 10
113.0494657022754
 20
240.2566873239378
 30
0.0
  0
SPLINE
  5
15D
330
1F
100
AcDbEntity
  8
1
  6
Continuous
 62
   252
370
    18
100
AcDbSpline
210
0.0
220
0.0
230
1.0
 70
     8
 71
     3
 72
    26
 73
    22
 74
     0
 42
0.000000001
 43
0.0000000001
 40
0.0
 40
0.0
 40
0.0
 40
0.0
 40
0.0830854503763886
 40
0.0830854503763886
 40
0.1656782967550729
 40
0.1656782967550729
 40
0.2732722209564951
 40
0.2732722209564951
 40
0.3804608893705187
 40
0.3804608893705187
 40
0.4872486860466804
 40
0.4872486860466804
 40
0.6019466898840409
 40
0.6019466898840409
 40
0.7170552508491961
 40
0.7170552508491961
 40
0.8319095146234234
 40
0.8319095146234234
 40
0.9158213055087033
 40
0.9158213055087033
 40
1.0
 40
1.0
 40
1.0
 40
1.0
 10
113.0494657022754
 20
240.2566873239378
 30
0.0
 10
113.1095768274696
 20
240.4043893772683
 30
0.0
 10
113.1898133665504
 20
240.5238667292145
 30
0.0
 10
113.3881787671355
 20
240.70539452502
 30
0.0
 10
113.5198682104555
 20
240.771588863025
 30
0.0
 10
113.8966043399876
 20
240.8648353005093
 30
0.0
 10
114.0994094869333
 20
240.8569214155827
 30
0.0
 10
114.4792553278168
 20
240.7226161179916
 30
0.0
 10
114.6407592476604
 20
240.5998190684729
 30
0.0
 10
114.9041905318771
 20
240.2470401883292
 30
0.0
 10
115.0004836053221
 20
240.0413385224964
 30
0.0
 10
115.1209522725934
 20
239.5546185934336
 30
0.0
 10
115.1311127066446
 20
239.3163901465343
 30
0.0
 10
115.0464017389531
 20
238.8685172882023
 30
0.0
 10
114.9506377459782
 20
238.6804698499788
 30
0.0
 10
114.6541106447972
 20
238.3785765051701
 30
0.0
 10
114.4829589402045
 20
238.279696182319
 30
0.0
 10
114.1477875949165
 20
238.1967374973272
 30
0.0
 10
114.013126001765
 20
238.1947684276333
 30
0.0
 10
113.7592697770159
 20
238.2557327149401
 30
0.0
 10
113.6491991793921
 20
238.3076177987136
 30
0.0
 10
113.5545242663696
 20
238.379190655178
 30
0.0
  0
SPLINE
  5
15E
330
1F
100
AcDbEntity
  8
1
  6
Continuous
 62
   252
370
    18
100
AcDbSpline
210
0.0
220
0.0
230
1.0
 70
    24
 71
     3
 72
     8
 73
     4
 74
     0
 42
0.000000001
 43
0.0000000001
 40
0.0
 40
0.0
 40
0.0
 40
0.0
 40
1.0
 40
1.0
 40
1.0
 40
1.0
 10
113.5545242663696
 20
238.379190655178
 30
0.0
 10
113.6533372565481
 20
237.9799644276491
 30
0.0
 10
113.7521502467265
 20
237.5807382001202
 30
0.0
 10
113.850963236905
 20
237.1815119725914
 30
0.0
  0
SPLINE
  5
15F
330
1F
100
AcDbEntity
  8
1
  6
Continuous
 62
   252
370
    18
100
AcDbSpline
210
0.0
220
0.0
230
1.0
 70
    24
 71
     3
 72
     8
 73
     4
 74
     0
 42
0.000000001
 43
0.0000000001
 40
0.0
 40
0.0
 40
0.0
 40
0.0
 40
1.0
 40
1.0
 40
1.0
 40
1.0
 10
113.850963236905
 20
237.1815119725914
 30
0.0
 10
113.7094660990526
 20
237.1464898364471
 30
0.0
 10
113.5679689612001
 20
237.1114677003028
 30
0.0
 10
113.4264718233477
 20
237.0764455641585
 30
0.0
  0
SPLINE
  5
160
330
1F
100
AcDbEntity
  8
1
  6
Continuous
 62
   252
370
    18
100
AcDbSpline
210
0.0
220
0.0
230
1.0
 70
    24
 71
     3
 72
     8
 73
     4
 74
     0
 42
0.000000001
 43
0.0000000001
 40
0.0
 40
0.0
 40
0.0
 40
0.0
 40
1.0
 40
1.0
 40
1.0
 40
1.0
 10
113.4264718233477
 20
237.0764455641585
 30
0.0
 10
113.1455933890014
 20
238.2112562559077
 30
0.0
 10
112.8647149546552
 20
239.346066947657
 30
0.0
 10
112.583836520309
 20
240.4808776394063
 30
0.0
  0
SPLINE
  5
161
330
1F
100
AcDbEntity
  8
1
  6
Continuous
 62
   252
370
    18
100
AcDbSpline
210
0.0
220
0.0
230
1.0
 70
     8
 71
     3
 72
    14
 73
    10
 74
     0
 42
0.000000001
 43
0.0000000001
 40
0.0
 40
0.0
 40
0.0
 40
0.0
 40
0.2597969915420544
 40
0.2597969915420544
 40
0.5072553396863304
 40
0.5072553396863304
 40
0.7548294860878316
 40
0.7548294860878316
 40
1.0
 40
1.0
 40
1.0
 40
1.0
 10
114.6025564599584
 20
238.9226859382989
 30
0.0
 10
114.6985628892892
 20
239.1130097116389
 30
0.0
 10
114.7052334761396
 20
239.3723981383204
 30
0.0
 10
114.5460427372454
 20
240.0155637588676
 30
0.0
 10
114.4225172035543
 20
240.2340345581276
 30
0.0
 10
114.0818852054853
 20
240.4800164672822
 30
0.0
 10
113.9058575191177
 20
240.5203076774298
 30
0.0
 10
113.5432711033708
 20
240.43056345356
 30
0.0
 10
113.4038542377074
 20
240.3075069599217
 30
0.0
 10
113.306098591634
 20
240.1071352273105
 30
0.0
  0
SPLINE
  5
162
330
1F
100
AcDbEntity
  8
1
  6
Continuous
 62
   252
370
    18
100
AcDbSpline
210
0.0
220
0.0
230
1.0
 70
     8
 71
     3
 72
    14
 73
    10
 74
     0
 42
0.000000001
 43
0.0000000001
 40
0.0
 40
0.0
 40
0.0
 40
0.0
 40
0.2485974925606044
 40
0.2485974925606044
 40
0.4978779452656142
 40
0.4978779452656142
 40
0.7471583979706296
 40
0.7471583979706296
 40
1.0
 40
1.0
 40
1.0
 40
1.0
 10
113.306098591634
 20
240.1071352273105
 30
0.0
 10
113.207458588449
 20
239.9065446063483
 30
0.0
 10
113.1982828221413
 20
239.6478496359076
 30
0.0
 10
113.3551072122141
 20
239.0142445853955
 30
0.0
 10
113.4775332661736
 20
238.7964240405151
 30
0.0
 10
113.8141656430049
 20
238.5587533221789
 30
0.0
 10
113.9902968768168
 20
238.5221000310886
 30
0.0
 10
114.3643799350142
 20
238.6146898035201
 30
0.0
 10
114.5068562506215
 20
238.7329692174774
 30
0.0
 10
114.6025564599584
 20
238.9226859382989
 30
0.0
  0
SPLINE
  5
163
330
1F
100
AcDbEntity
  8
1
  6
Continuous
 62
   252
370
    18
100
AcDbSpline
210
0.0
220
0.0
230
1.0
 70
     8
 71
     3
 72
    16
 73
    12
 74
     0
 42
0.000000001
 43
0.0000000001
 40
0.0
 40
0.0
 40
0.0
 40
0.0
 40
0.1633046513092858
 40
0.1633046513092858
 40
0.3823037842485261
 40
0.3823037842485261
 40
0.6193756611681913
 40
0.6193756611681913
 40
0.8564475380878567
 40
0.8564475380878567
 40
1.0
 40
1.0
 40
1.0
 40
1.0
 10
124.6792225487527
 20
238.1785492745659
 30
0.0
 10
124.6650236335669
 20
238.0492364804402
 30
0.0
 10
124.6901718766788
 20
237.9461518452688
 30
0.0
 10
124.8411586111523
 20
237.7662272597394
 30
0.0
 10
124.9754117021899
 20
237.6919318254928
 30
0.0
 10
125.3547834373611
 20
237.597958185818
 30
0.0
 10
125.5154740469911
 20
237.5987406812175
 30
0.0
 10
125.7677992055803
 20
237.7004301939774
 30
0.0
 10
125.8672236770056
 20
237.7911057063686
 30
0.0
 10
125.982157867718
 20
237.9995928451037
 30
0.0
 10
126.0367612634505
 20
238.1761950958668
 30
0.0
 10
126.1023765895275
 20
238.4486623522429
 30
0.0
  0
SPLINE
  5
164
330
1F
100
AcDbEntity
  8
1
  6
Continuous
 62
   252
370
    18
100
AcDbSpline
210
0.0
220
0.0
230
1.0
 70
     8
 71
     3
 72
    20
 73
    16
 74
     0
 42
0.000000001
 43
0.0000000001
 40
0.0
 40
0.0
 40
0.0
 40
0.0
 40
0.1395036667454531
 40
0.1395036667454531
 40
0.3128804282917179
 40
0.3128804282917179
 40
0.4862571898379833
 40
0.4862571898379833
 40
0.6053709954804553
 40
0.6053709954804553
 40
0.7238541056890749
 40
0.7238541056890749
 40
0.842337215897694
 40
0.842337215897694
 40
1.0
 40
1.0
 40
1.0
 40
1.0
 10
126.1023765895275
 20
238.4486623522429
 30
0.0
 10
125.8632796607502
 20
238.2791259604613
 30
0.0
 10
125.6059931223311
 20
238.2293990998978
 30
0.0
 10
124.9852030102329
 20
238.3831741466383
 30
0.0
 10
124.748279247647
 20
238.5710024646879
 30
0.0
 10
124.4925501897489
 20
239.1527546737315
 30
0.0
 10
124.4704791150587
 20
239.4690809365261
 30
0.0
 10
124.6132125487141
 20
240.0452960387632
 30
0.0
 10
124.7101498214661
 20
240.2509690297379
 30
0.0
 10
124.9813560948415
 20
240.6051435831525
 30
0.0
 10
125.1446546393885
 20
240.7281593685976
 30
0.0
 10
125.5270108248039
 20
240.8622092111315
 30
0.0
 10
125.7333547052465
 20
240.8692091778414
 30
0.0
 10
126.2506797986616
 20
240.7410633055576
 30
0.0
 10
126.4648034395428
 20
240.5634949259742
 30
0.0
 10
126.5983580762245
 20
240.280433637543
 30
0.0
  0
SPLINE
  5
165
330
1F
100
AcDbEntity
  8
1
  6
Continuous
 62
   252
370
    18
100
AcDbSpline
210
0.0
220
0.0
230
1.0
 70
     8
 71
     3
 72
    16
 73
    12
 74
     0
 42
0.000000001
 43
0.0000000001
 40
0.0
 40
0.0
 40
0.0
 40
0.0
 40
0.3056457548920906
 40
0.3056457548920906
 40
0.4708293062492152
 40
0.4708293062492152
 40
0.6360128576063367
 40
0.6360128576063367
 40
0.8022063438439564
 40
0.8022063438439564
 40
1.0
 40
1.0
 40
1.0
 40
1.0
 10
127.0637374420528
 20
240.480626388705
 30
0.0
 10
126.8880655237076
 20
239.7714385705671
 30
0.0
 10
126.7123936053624
 20
239.0622507524291
 30
0.0
 10
126.4417813487939
 20
237.9697886355181
 30
0.0
 10
126.3348184361775
 20
237.7084859621976
 30
0.0
 10
126.0964168937312
 20
237.4280856610251
 30
0.0
 10
125.939412469879
 20
237.3323021579375
 30
0.0
 10
125.5494690265717
 20
237.2327414272704
 30
0.0
 10
125.3259118540747
 20
237.2389050291698
 30
0.0
 10
124.7758670538965
 20
237.3751558540596
 30
0.0
 10
124.5508102772075
 20
237.5010090677167
 30
0.0
 10
124.3995956666915
 20
237.6786756577112
 30
0.0
  0
SPLINE
  5
166
330
1F
100
AcDbEntity
  8
1
  6
Continuous
 62
   252
370
    18
100
AcDbSpline
210
0.0
220
0.0
230
1.0
 70
    24
 71
     3
 72
     8
 73
     4
 74
     0
 42
0.000000001
 43
0.0000000001
 40
0.0
 40
0.0
 40
0.0
 40
0.0
 40
1.0
 40
1.0
 40
1.0
 40
1.0
 10
126.5983580762245
 20
240.280433637543
 30
0.0
 10
126.6229004765815
 20
240.3795113474299
 30
0.0
 10
126.6474428769386
 20
240.4785890573168
 30
0.0
 10
126.6719852772956
 20
240.5776667672037
 30
0.0
  0
SPLINE
  5
167
330
1F
100
AcDbEntity
  8
1
  6
Continuous
 62
   252
370
    18
100
AcDbSpline
210
0.0
220
0.0
230
1.0
 70
    24
 71
     3
 72
     8
 73
     4
 74
     0
 42
0.000000001
 43
0.0000000001
 40
0.0
 40
0.0
 40
0.0
 40
0.0
 40
1.0
 40
1.0
 40
1.0
 40
1.0
 10
124.281101401162
 20
238.3408150071829
 30
0.0
 10
124.4138084503589
 20
238.2867264296439
 30
0.0
 10
124.5465154995558
 20
238.2326378521049
 30
0.0
 10
124.6792225487527
 20
238.1785492745659
 30
0.0
  0
SPLINE
  5
168
330
1F
100
AcDbEntity
  8
1
  6
Continuous
 62
   252
370
    18
100
AcDbSpline
210
0.0
220
0.0
230
1.0
 70
     8
 71
     3
 72
    14
 73
    10
 74
     0
 42
0.000000001
 43
0.0000000001
 40
0.0
 40
0.0
 40
0.0
 40
0.0
 40
0.2602855603982333
 40
0.2602855603982333
 40
0.5083814389045423
 40
0.5083814389045423
 40
0.756477317410853
 40
0.756477317410853
 40
1.0
 40
1.0
 40
1.0
 40
1.0
 10
126.0001572361494
 20
238.7331859263438
 30
0.0
 10
126.1685186959224
 20
238.8482945252588
 30
0.0
 10
126.2921080266805
 20
239.0630468903432
 30
0.0
 10
126.4447445341643
 20
239.6792407176223
 30
0.0
 10
126.4328413512061
 20
239.9229435906317
 30
0.0
 10
126.2362519435217
 20
240.296336001601
 30
0.0
 10
126.0915984205086
 20
240.4133418038419
 30
0.0
 10
125.7113423689385
 20
240.5075344962898
 30
0.0
 10
125.5327666583448
 20
240.4724402144529
 30
0.0
 10
125.3626597453182
 20
240.3540742574378
 30
0.0
  0
SPLINE
  5
169
330
1F
100
AcDbEntity
  8
1
  6
Continuous
 62
   252
370
    18
100
AcDbSpline
210
0.0
220
0.0
230
1.0
 70
     8
 71
     3
 72
     8
 73
     4
 74
     0
 42
0.000000001
 43
0.0000000001
 40
0.0
 40
0.0
 40
0.0
 40
0.0
 40
1.0
 40
1.0
 40
1.0
 40
1.0
 10
124.3995956666915
 20
237.6786756577112
 30
0.0
 10
124.2483810561755
 20
237.8563422477058
 30
0.0
 10
124.2092495012032
 20
238.0772720475114
 30
0.0
 10
124.281101401162
 20
238.3408150071829
 30
0.0
  0
SPLINE
  5
16A
330
1F
100
AcDbEntity
  8
1
  6
Continuous
 62
   252
370
    18
100
AcDbSpline
210
0.0
220
0.0
230
1.0
 70
    24
 71
     3
 72
     8
 73
     4
 74
     0
 42
0.000000001
 43
0.0000000001
 40
0.0
 40
0.0
 40
0.0
 40
0.0
 40
1.0
 40
1.0
 40
1.0
 40
1.0
 10
126.6719852772956
 20
240.5776667672037
 30
0.0
 10
126.8025693322147
 20
240.5453199743708
 30
0.0
 10
126.9331533871337
 20
240.5129731815379
 30
0.0
 10
127.0637374420528
 20
240.480626388705
 30
0.0
  0
SPLINE
  5
16B
330
1F
100
AcDbEntity
  8
1
  6
Continuous
 62
   252
370
    18
100
AcDbSpline
210
0.0
220
0.0
230
1.0
 70
     8
 71
     3
 72
    14
 73
    10
 74
     0
 42
0.000000001
 43
0.0000000001
 40
0.0
 40
0.0
 40
0.0
 40
0.0
 40
0.2350607759406096
 40
0.2350607759406096
 40
0.4914907133303723
 40
0.4914907133303723
 40
0.7463192949119914
 40
0.7463192949119914
 40
1.0
 40
1.0
 40
1.0
 40
1.0
 10
125.3626597453182
 20
240.3540742574378
 30
0.0
 10
125.1936524329043
 20
240.2363583503679
 30
0.0
 10
125.0720006600691
 20
240.0294279097482
 30
0.0
 10
124.9185030157307
 20
239.4097576715958
 30
0.0
 10
124.9256004073553
 20
239.1580209297229
 30
0.0
 10
125.1131434410785
 20
238.7970787166778
 30
0.0
 10
125.2581459196434
 20
238.6817687379014
 30
0.0
 10
125.6498980844005
 20
238.5847283594027
 30
0.0
 10
125.8317957763765
 20
238.6180773274288
 30
0.0
 10
126.0001572361494
 20
238.7331859263438
 30
0.0
  0
SPLINE
  5
16C
330
1F
100
AcDbEntity
  8
1
  6
Continuous
 62
   252
370
    13
100
AcDbSpline
210
0.0
220
0.0
230
1.0
 70
     8
 71
     3
 72
    29
 73
    25
 74
     0
 42
0.000000001
 43
0.0000000001
 40
0.0
 40
0.0
 40
0.0
 40
0.0
 40
0.1250000000000006
 40
0.1250000000000006
 40
0.2500000000000011
 40
0.2500000000000011
 40
0.3750000000000019
 40
0.3750000000000019
 40
0.4062500000000012
 40
0.4062500000000012
 40
0.4375000000000005
 40
0.5000000000000012
 40
0.5000000000000012
 40
0.6250000000000018
 40
0.6250000000000018
 40
0.6875000000000017
 40
0.6875000000000017
 40
0.7500000000000017
 40
0.7500000000000017
 40
0.8750000000000011
 40
0.8750000000000011
 40
0.9375000000000006
 40
0.9375000000000006
 40
1.0
 40
1.0
 40
1.0
 40
1.0
 10
94.77606681414943
 20
199.1870857887884
 30
0.0
 10
94.93392335980442
 20
199.0401761669745
 30
0.0
 10
95.09069482958941
 20
198.8989789408205
 30
0.0
 10
95.40284852261381
 20
198.628350398707
 30
0.0
 10
95.55822918770411
 20
198.498919246518
 30
0.0
 10
95.86840204314461
 20
198.2526729514313
 30
0.0
 10
96.02319281922026
 20
198.1358539581021
 30
0.0
 10
96.2168558212189
 20
197.9985929255148
 30
0.0
 10
96.25553549556943
 20
197.971625360188
 30
0.0
 10
96.33253944609233
 20
197.9188541433441
 30
0.0
 10
96.44763059044303
 20
197.841359511965
 30
0.0
 10
96.56154259594528
 20
197.7688869426109
 30
0.0
 10
96.78794691740046
 20
197.6307913465963
 30
0.0
 10
96.93699865900001
 20
197.5478330269174
 30
0.0
 10
97.15821604181126
 20
197.4381007428133
 30
0.0
 10
97.23155979733923
 20
197.4039804294945
 30
0.0
 10
97.37750624828777
 20
197.3409228493101
 30
0.0
 10
97.45014097309587
 20
197.3119732178092
 30
0.0
 10
97.66677737663201
 20
197.2335017675306
 30
0.0
 10
97.80729341733405
 20
197.1931156310378
 30
0.0
 10
98.01203077793535
 20
197.1517653840753
 30
0.0
 10
98.0792632174814
 20
197.1411985888273
 30
0.0
 10
98.21156140782314
 20
197.1269110805849
 30
0.0
 10
98.27662836010535
 20
197.1231880252101
 30
0.0
 10
98.34048967979606
 20
197.1231880252101
 30
0.0
  0
SPLINE
  5
16D
330
1F
100
AcDbEntity
  8
1
  6
Continuous
 62
   252
370
    13
100
AcDbSpline
210
0.0
220
0.0
230
1.0
 70
     8
 71
     3
 72
     8
 73
     4
 74
     0
 42
0.000000001
 43
0.0000000001
 40
0.0
 40
0.0
 40
0.0
 40
0.0
 40
1.0
 40
1.0
 40
1.0
 40
1.0
 10
146.1218345032526
 20
197.8572605679652
 30
0.0
 10
145.4876940303145
 20
196.8934693366539
 30
0.0
 10
144.8526691671512
 20
195.9302634220131
 30
0.0
 10
144.216519719228
 20
194.9678036989555
 30
0.0
  0
SPLINE
  5
16E
330
1F
100
AcDbEntity
  8
1
  6
Continuous
 62
   252
370
    13
100
AcDbSpline
210
0.0
220
0.0
230
1.0
 70
     8
 71
     3
 72
    32
 73
    28
 74
     0
 42
0.000000001
 43
0.0000000001
 40
0.0
 40
0.0
 40
0.0
 40
0.0
 40
0.0624999999999978
 40
0.0624999999999978
 40
0.1249999999999957
 40
0.1249999999999957
 40
0.2499999999999921
 40
0.2499999999999921
 40
0.2656249999999921
 40
0.2656249999999921
 40
0.2812499999999921
 40
0.3124999999999919
 40
0.3749999999999922
 40
0.3749999999999922
 40
0.4999999999999929
 40
0.4999999999999929
 40
0.6249999999999936
 40
0.6249999999999936
 40
0.6406249999999943
 40
0.6406249999999943
 40
0.6562499999999951
 40
0.6874999999999959
 40
0.7499999999999967
 40
0.7499999999999967
 40
0.8749999999999983
 40
0.8749999999999983
 40
1.0
 40
1.0
 40
1.0
 40
1.0
 10
97.28148452057786
 20
194.9678036989556
 30
0.0
 10
97.21788865131549
 20
194.9678036989556
 30
0.0
 10
97.15301866262581
 20
194.9725017654783
 30
0.0
 10
97.02092932080879
 20
194.9907738609349
 30
0.0
 10
96.95370918769424
 20
195.0043495300604
 30
0.0
 10
96.74867288646078
 20
195.0578999537173
 30
0.0
 10
96.60751465811785
 20
195.1106366145335
 30
0.0
 10
96.44361437417191
 20
195.1886216013281
 30
0.0
 10
96.42531717094505
 20
195.1975544001117
 30
0.0
 10
96.38866106812208
 20
195.2158994174899
 30
0.0
 10
96.33359218843782
 20
195.2441308812717
 30
0.0
 10
96.2044983962468
 20
195.3149383273477
 30
0.0
 10
96.09279047100868
 20
195.3838900654644
 30
0.0
 10
95.86784820770077
 20
195.5324253759491
 30
0.0
 10
95.71586512707889
 20
195.6455849374061
 30
0.0
 10
95.4068742503456
 20
195.8992498084812
 30
0.0
 10
95.24986794222292
 20
196.0397578650412
 30
0.0
 10
95.06959988082882
 20
196.2134035824316
 30
0.0
 10
95.04952195060541
 20
196.2329124567902
 30
0.0
 10
95.0094004664081
 20
196.2722282350669
 30
0.0
 10
94.94921802720545
 20
196.3316986430966
 30
0.0
 10
94.80876409702053
 20
196.4739015902207
 30
0.0
 10
94.68823590701727
 20
196.6015620367794
 30
0.0
 10
94.44675767328894
 20
196.8643367085579
 30
0.0
 10
94.28521009432203
 20
197.049430463695
 30
0.0
 10
93.95974778684433
 20
197.4388443708479
 30
0.0
 10
93.79583639517985
 20
197.6431605949007
 30
0.0
 10
93.63009726431619
 20
197.8572605679653
 30
0.0
  0
SPLINE
  5
16F
330
1F
100
AcDbEntity
  8
1
  6
Continuous
 62
   252
370
    18
100
AcDbSpline
210
0.0
220
0.0
230
1.0
 70
     8
 71
     3
 72
    29
 73
    25
 74
     0
 42
0.000000001
 43
0.0000000001
 40
0.0
 40
0.0
 40
0.0
 40
0.0
 40
0.1312594265734597
 40
0.1312594265734597
 40
0.2625188531469194
 40
0.2625188531469194
 40
0.3281485664336491
 40
0.3281485664336491
 40
0.3609634230770156
 40
0.3609634230770156
 40
0.393778279720382
 40
0.393778279720382
 40
0.5250377062938522
 40
0.5250377062938522
 40
0.6562971328673218
 40
0.6562971328673218
 40
0.7219268461540586
 40
0.7547417027974286
 40
0.7547417027974286
 40
0.7875565594407986
 40
0.7875565594407986
 40
0.9188159860142765
 40
0.9188159860142765
 40
1.0
 40
1.0
 40
1.0
 40
1.0
 10
247.1288340336135
 20
200.6231880252101
 30
0.0
 10
247.1288340336135
 20
200.4970850602383
 30
0.0
 10
247.1220401262015
 20
200.3722634832198
 30
0.0
 10
247.0954375039033
 20
200.1250792912555
 30
0.0
 10
247.0756267019536
 20
200.0027170731979
 30
0.0
 10
247.0362310581734
 20
199.8210119271968
 30
0.0
 10
247.0214825601348
 20
199.7607506089567
 30
0.0
 10
246.9969150545245
 20
199.6708247452881
 30
0.0
 10
246.9883182141732
 20
199.640927187439
 30
0.0
 10
246.9703032809635
 20
199.5812889984981
 30
0.0
 10
246.9608687596301
 20
199.5515000471942
 30
0.0
 10
246.9118572970079
 20
199.403644318047
 30
0.0
 10
246.8668458993371
 20
199.2889425054917
 30
0.0
 10
246.7659094042032
 20
199.0663675253789
 30
0.0
 10
246.7099815139921
 20
198.9584959569095
 30
0.0
 10
246.6181468468862
 20
198.8017390761781
 30
0.0
 10
246.5702399753665
 20
198.7246258170987
 30
0.0
 10
246.5193620975145
 20
198.6494189752661
 30
0.0
 10
246.4847825837858
 20
198.5997072050675
 30
0.0
 10
246.4671564495962
 20
198.5750585202673
 30
0.0
 10
246.3779147936226
 20
198.4536045001212
 30
0.0
 10
246.3025707096738
 20
198.3615568851762
 30
0.0
 10
246.174773839745
 20
198.2203800573916
 30
0.0
 10
246.1245528751428
 20
198.1682752478859
 30
0.0
 10
246.0730000698235
 20
198.1179798807871
 30
0.0
  0
SPLINE
  5
170
330
1F
100
AcDbEntity
  8
1
  6
Continuous
 62
   252
370
    18
100
AcDbSpline
210
0.0
220
0.0
230
1.0
 70
     8
 71
     3
 72
    41
 73
    37
 74
     0
 42
0.000000001
 43
0.0000000001
 40
0.0
 40
0.0
 40
0.0
 40
0.0
 40
0.0156250000000011
 40
0.0156250000000011
 40
0.0312500000000022
 40
0.0312500000000022
 40
0.062500000000003
 40
0.062500000000003
 40
0.1250000000000059
 40
0.1250000000000059
 40
0.2500000000000102
 40
0.2500000000000102
 40
0.3125000000000113
 40
0.3125000000000113
 40
0.3437500000000109
 40
0.3437500000000109
 40
0.3750000000000105
 40
0.3750000000000105
 40
0.5000000000000118
 40
0.5000000000000118
 40
0.5625000000000115
 40
0.5937500000000134
 40
0.5937500000000134
 40
0.6250000000000152
 40
0.6250000000000152
 40
0.7500000000000111
 40
0.7500000000000111
 40
0.7812500000000107
 40
0.7812500000000107
 40
0.8125000000000102
 40
0.8125000000000102
 40
0.8750000000000068
 40
0.8750000000000068
 40
0.9375000000000033
 40
0.9375000000000033
 40
1.0
 40
1.0
 40
1.0
 40
1.0
 10
248.2527843930413
 20
194.9678036989556
 30
0.0
 10
248.2439912728044
 20
194.9752183831839
 30
0.0
 10
248.2350861902405
 20
194.9827881588706
 30
0.0
 10
248.217379333937
 20
194.997961697082
 30
0.0
 10
248.2085438584706
 20
195.0055939505209
 30
0.0
 10
248.1820914963386
 20
195.0286274585049
 30
0.0
 10
248.1645212993163
 20
195.0441723806081
 30
0.0
 10
248.1121877206081
 20
195.0912136085094
 30
0.0
 10
248.0777512841043
 20
195.1231579996737
 30
0.0
 10
247.9758045915943
 20
195.220744253634
 30
0.0
 10
247.909648149909
 20
195.2881279794881
 30
0.0
 10
247.8132939034248
 20
195.3928932099602
 30
0.0
 10
247.7816579664334
 20
195.4284325428956
 30
0.0
 10
247.734970557006
 20
195.4827212508722
 30
0.0
 10
247.7195119417385
 20
195.5010105229733
 30
0.0
 10
247.68903224268
 20
195.5377185181995
 30
0.0
 10
247.6740006067028
 20
195.5561484053993
 30
0.0
 10
247.5998942708364
 20
195.6486823463648
 30
0.0
 10
247.5439510976989
 20
195.7239311126105
 30
0.0
 10
247.4655256938903
 20
195.8388322911455
 30
0.0
 10
247.4276921191106
 20
195.8967923743796
 30
0.0
 10
247.3920966141692
 20
195.9555828940275
 30
0.0
 10
247.3688899420497
 20
195.9949712481401
 30
0.0
 10
247.357525051978
 20
196.0148053196284
 30
0.0
 10
247.3024827649695
 20
196.1137609706873
 30
0.0
 10
247.2639486427945
 20
196.1924548826012
 30
0.0
 10
247.2236014971232
 20
196.2901727787695
 30
0.0
 10
247.2159267240287
 20
196.3096835356024
 30
0.0
 10
247.2014069624744
 20
196.3486362756457
 30
0.0
 10
247.1945457351453
 20
196.3681284231205
 30
0.0
 10
247.1754043894955
 20
196.4261162595687
 30
0.0
 10
247.164606619494
 20
196.463963335014
 30
0.0
 10
247.1470792909467
 20
196.5379749829611
 30
0.0
 10
247.1403486897918
 20
196.5741400096951
 30
0.0
 10
247.1312271006138
 20
196.6446712896845
 30
0.0
 10
247.1288340336134
 20
196.6790384517169
 30
0.0
 10
247.1288340336134
 20
196.7124097578796
 30
0.0
  0
SPLINE
  5
171
330
1F
100
AcDbEntity
  8
1
  6
Continuous
 62
   252
370
    18
100
AcDbSpline
210
0.0
220
0.0
230
1.0
 70
     8
 71
     3
 72
    14
 73
    10
 74
     0
 42
0.000000001
 43
0.0000000001
 40
0.0
 40
0.0
 40
0.0
 40
0.0
 40
0.25
 40
0.25
 40
0.5
 40
0.5
 40
0.75
 40
0.75
 40
1.0
 40
1.0
 40
1.0
 40
1.0
 10
261.1288340336134
 20
200.6231880252101
 30
0.0
 10
261.1288340336134
 20
200.4911450880321
 30
0.0
 10
261.1362682962568
 20
200.3625766601919
 30
0.0
 10
261.1641158074258
 20
200.1116596032657
 30
0.0
 10
261.1845392866298
 20
199.989315188062
 30
0.0
 10
261.2371923657404
 20
199.7504177951262
 30
0.0
 10
261.2694270803114
 20
199.6338668937451
 30
0.0
 10
261.3449924777917
 20
199.4063248384404
 30
0.0
 10
261.3883255430194
 20
199.2953346094628
 30
0.0
 10
261.4370304108094
 20
199.1870857887885
 30
0.0
  0
SPLINE
  5
172
330
1F
100
AcDbEntity
  8
1
  6
Continuous
 62
   252
370
    13
100
AcDbSpline
210
0.0
220
0.0
230
1.0
 70
     8
 71
     3
 72
    14
 73
    10
 74
     0
 42
0.000000001
 43
0.0000000001
 40
0.0
 40
0.0
 40
0.0
 40
0.0
 40
0.25
 40
0.25
 40
0.5
 40
0.5
 40
0.75
 40
0.75
 40
1.0
 40
1.0
 40
1.0
 40
1.0
 10
260.4362587949984
 20
197.8572605679654
 30
0.0
 10
260.363641867526
 20
198.0186550469273
 30
0.0
 10
260.2995139310803
 20
198.183471833329
 30
0.0
 10
260.1883207244325
 20
198.5198847279384
 30
0.0
 10
260.1412540002759
 20
198.6914804584285
 30
0.0
 10
260.0647990684644
 20
199.0415790661156
 30
0.0
 10
260.0354060826692
 20
199.220080395153
 30
0.0
 10
259.9955332102841
 20
199.5843377342368
 30
0.0
 10
259.9850431839401
 20
199.7700903413792
 30
0.0
 10
259.9850431839401
 20
199.9597893323996
 30
0.0
  0
SPLINE
  5
173
330
1F
100
AcDbEntity
  8
1
  6
Continuous
 62
   252
370
    18
100
AcDbSpline
210
0.0
220
0.0
230
1.0
 70
    24
 71
     3
 72
     8
 73
     4
 74
     0
 42
0.000000001
 43
0.0000000001
 40
0.0
 40
0.0
 40
0.0
 40
0.0
 40
1.0
 40
1.0
 40
1.0
 40
1.0
 10
246.1288340336134
 20
237.2399179725914
 30
0.0
 10
246.1288340336134
 20
237.2204493059248
 30
0.0
 10
246.1288340336134
 20
237.2009806392581
 30
0.0
 10
246.1288340336134
 20
237.1815119725914
 30
0.0
  0
SPLINE
  5
174
330
1F
100
AcDbEntity
  8
1
  6
Continuous
 62
   252
370
    18
100
AcDbSpline
210
0.0
220
0.0
230
1.0
 70
    24
 71
     3
 72
     8
 73
     4
 74
     0
 42
0.000000001
 43
0.0000000001
 40
0.0
 40
0.0
 40
0.0
 40
0.0
 40
1.0
 40
1.0
 40
1.0
 40
1.0
 10
246.1288340336134
 20
237.1815119725914
 30
0.0
 10
246.1288340336134
 20
237.1464898364471
 30
0.0
 10
246.1288340336134
 20
237.1114677003028
 30
0.0
 10
246.1288340336135
 20
237.0764455641585
 30
0.0
  0
SPLINE
  5
175
330
1F
100
AcDbEntity
  8
1
  6
Continuous
 62
   252
370
    18
100
AcDbSpline
210
0.0
220
0.0
230
1.0
 70
    24
 71
     3
 72
     8
 73
     4
 74
     0
 42
0.000000001
 43
0.0000000001
 40
0.0
 40
0.0
 40
0.0
 40
0.0
 40
1.0
 40
1.0
 40
1.0
 40
1.0
 10
262.1288340336134
 20
241.374064784346
 30
0.0
 10
262.1288340336134
 20
241.4135011176793
 30
0.0
 10
262.1288340336134
 20
241.4529374510127
 30
0.0
 10
262.1288340336134
 20
241.492373784346
 30
0.0
  0
SPLINE
  5
176
330
1F
100
AcDbEntity
  8
1
  6
Continuous
 62
   252
370
    18
100
AcDbSpline
210
0.0
220
0.0
230
1.0
 70
    24
 71
     3
 72
    10
 73
     6
 74
     0
 42
0.000000001
 43
0.0000000001
 40
0.0
 40
0.0
 40
0.0
 40
0.0
 40
0.4357415001499331
 40
0.4357415001499331
 40
1.0
 40
1.0
 40
1.0
 40
1.0
 10
246.1288340336134
 20
241.1338869390774
 30
0.0
 10
246.1288340336134
 20
241.078040573784
 30
0.0
 10
246.1288340336134
 20
241.0171895418418
 30
0.0
 10
246.1288340336134
 20
240.8659994522375
 30
0.0
 10
246.1288340336134
 20
240.7639051983878
 30
0.0
 10
246.1288340336134
 20
240.643407939078
 30
0.0
  0
SPLINE
  5
177
330
1F
100
AcDbEntity
  8
1
  6
Continuous
 62
   252
370
    18
100
AcDbSpline
210
0.0
220
0.0
230
1.0
 70
    24
 71
     3
 72
    10
 73
     6
 74
     0
 42
0.000000001
 43
0.0000000001
 40
0.0
 40
0.0
 40
0.0
 40
0.0
 40
0.8452557546031135
 40
0.8452557546031135
 40
1.0
 40
1.0
 40
1.0
 40
1.0
 10
262.1288340336135
 20
240.9028302167215
 30
0.0
 10
262.1288340336135
 20
241.1447374403039
 30
0.0
 10
262.1288340336134
 20
241.2882118160583
 30
0.0
 10
262.1288340336134
 20
241.3403368718091
 30
0.0
 10
262.1288340336134
 20
241.3443841374456
 30
0.0
 10
262.1288340336134
 20
241.3444112167199
 30
0.0
  0
SPLINE
  5
178
330
1F
100
AcDbEntity
  8
1
  6
Continuous
 62
   252
370
    18
100
AcDbSpline
210
0.0
220
0.0
230
1.0
 70
    24
 71
     3
 72
    10
 73
     6
 74
     0
 42
0.000000001
 43
0.0000000001
 40
0.0
 40
0.0
 40
0.0
 40
0.0
 40
0.6350348260431828
 40
0.6350348260431828
 40
1.0
 40
1.0
 40
1.0
 40
1.0
 10
262.1288340336134
 20
240.6181526133573
 30
0.0
 10
262.1288340336134
 20
240.706981851161
 30
0.0
 10
262.1288340336134
 20
240.7720755212788
 30
0.0
 10
262.1288340336134
 20
240.8350762970196
 30
0.0
 10
262.1288340336134
 20
240.8465438679323
 30
0.0
 10
262.1288340336134
 20
240.8465936133568
 30
0.0
  0
SPLINE
  5
179
330
1F
100
AcDbEntity
  8
1
  6
Continuous
 62
   252
370
    18
100
AcDbSpline
210
0.0
220
0.0
230
1.0
 70
    24
 71
     3
 72
    10
 73
     6
 74
     0
 42
0.000000001
 43
0.0000000001
 40
0.0
 40
0.0
 40
0.0
 40
0.0
 40
0.392438297654614
 40
0.392438297654614
 40
1.0
 40
1.0
 40
1.0
 40
1.0
 10
246.1288340336134
 20
240.8509786375649
 30
0.0
 10
246.1288340336134
 20
240.850888404425
 30
0.0
 10
246.1288340336134
 20
240.8386953369681
 30
0.0
 10
246.1288340336134
 20
240.7763456495658
 30
0.0
 10
246.1288340336134
 20
240.7104758966901
 30
0.0
 10
246.1288340336134
 20
240.6164666375651
 30
0.0
  0
SPLINE
  5
17A
330
1F
100
AcDbEntity
  8
1
  6
Continuous
 62
   252
370
    18
100
AcDbSpline
210
0.0
220
0.0
230
1.0
 70
    24
 71
     3
 72
     8
 73
     4
 74
     0
 42
0.000000001
 43
0.0000000001
 40
0.0
 40
0.0
 40
0.0
 40
0.0
 40
1.0
 40
1.0
 40
1.0
 40
1.0
 10
262.1288340336134
 20
237.0764455641585
 30
0.0
 10
262.1288340336134
 20
238.2112562559078
 30
0.0
 10
262.1288340336134
 20
239.3460669476571
 30
0.0
 10
262.1288340336134
 20
240.4808776394063
 30
0.0
  0
SPLINE
  5
17B
330
1F
100
AcDbEntity
  8
1
  6
Continuous
 62
   252
370
    18
100
AcDbSpline
210
0.0
220
0.0
230
1.0
 70
    24
 71
     3
 72
     8
 73
     4
 74
     0
 42
0.000000001
 43
0.0000000001
 40
0.0
 40
0.0
 40
0.0
 40
0.0
 40
1.0
 40
1.0
 40
1.0
 40
1.0
 10
262.1288340336134
 20
240.4808776394063
 30
0.0
 10
262.1288340336134
 20
240.5127623758544
 30
0.0
 10
262.1288340336134
 20
240.5446471123024
 30
0.0
 10
262.1288340336134
 20
240.5765318487505
 30
0.0
  0
SPLINE
  5
17C
330
1F
100
AcDbEntity
  8
1
  6
Continuous
 62
   252
370
    18
100
AcDbSpline
210
0.0
220
0.0
230
1.0
 70
    24
 71
     3
 72
     8
 73
     4
 74
     0
 42
0.000000001
 43
0.0000000001
 40
0.0
 40
0.0
 40
0.0
 40
0.0
 40
1.0
 40
1.0
 40
1.0
 40
1.0
 10
246.1288340336134
 20
240.5776667672037
 30
0.0
 10
246.1288340336134
 20
240.5453199743708
 30
0.0
 10
246.1288340336134
 20
240.5129731815379
 30
0.0
 10
246.1288340336134
 20
240.480626388705
 30
0.0
  0
SPLINE
  5
17D
330
1F
100
AcDbEntity
  8
1
  6
Continuous
 62
   252
370
    18
100
AcDbSpline
210
0.0
220
0.0
230
1.0
 70
    24
 71
     3
 72
    14
 73
    10
 74
     0
 42
0.000000001
 43
0.0000000001
 40
0.0
 40
0.0
 40
0.0
 40
0.0
 40
0.4303048411604107
 40
0.4303048411604107
 40
0.6628592957581357
 40
0.6628592957581357
 40
0.8954137503558564
 40
0.8954137503558564
 40
1.0
 40
1.0
 40
1.0
 40
1.0
 10
246.1288340336134
 20
240.480626388705
 30
0.0
 10
246.1288340336134
 20
239.7714385705671
 30
0.0
 10
246.1288340336134
 20
239.0622507524292
 30
0.0
 10
246.1288340336134
 20
237.9697886355181
 30
0.0
 10
246.1288340336134
 20
237.7084859621976
 30
0.0
 10
246.1288340336134
 20
237.4280856610251
 30
0.0
 10
246.1288340336134
 20
237.3323021579376
 30
0.0
 10
246.1288340336134
 20
237.2603541142336
 30
0.0
 10
246.1288340336134
 20
237.2492428953791
 30
0.0
 10
246.1288340336134
 20
237.2493355377591
 30
0.0
  0
SPLINE
  5
17E
330
1F
100
AcDbEntity
  8
1
  6
Continuous
 62
   252
370
    18
100
AcDbSpline
210
0.0
220
0.0
230
1.0
 70
     8
 71
     3
 72
    29
 73
    25
 74
     0
 42
0.000000001
 43
0.0000000001
 40
0.0
 40
0.0
 40
0.0
 40
0.0
 40
0.1250000000000006
 40
0.1250000000000006
 40
0.2500000000000011
 40
0.2500000000000011
 40
0.3750000000000019
 40
0.3750000000000019
 40
0.4062500000000012
 40
0.4062500000000012
 40
0.4375000000000005
 40
0.5000000000000012
 40
0.5000000000000012
 40
0.6250000000000018
 40
0.6250000000000018
 40
0.6875000000000017
 40
0.6875000000000017
 40
0.7500000000000017
 40
0.7500000000000017
 40
0.8750000000000011
 40
0.8750000000000011
 40
0.9375000000000006
 40
0.9375000000000006
 40
1.0
 40
1.0
 40
1.0
 40
1.0
 10
261.4370304108094
 20
199.1870857887884
 30
0.0
 10
261.5031301028241
 20
199.0401761669746
 30
0.0
 10
261.5788153436237
 20
198.8989789408205
 30
0.0
 10
261.7485330389488
 20
198.628350398707
 30
0.0
 10
261.8425682894978
 20
198.498919246518
 30
0.0
 10
262.0488237766677
 20
198.2526729514313
 30
0.0
 10
262.1610410947582
 20
198.1358539581021
 30
0.0
 10
262.3129804955935
 20
197.9985929255148
 30
0.0
 10
262.343906304319
 20
197.9716253601881
 30
0.0
 10
262.406614973748
 20
197.9188541433441
 30
0.0
 10
262.5020567872958
 20
197.8413595119651
 30
0.0
 10
262.6015875397396
 20
197.7688869426109
 30
0.0
 10
262.8060300984567
 20
197.6307913465963
 30
0.0
 10
262.9494755257468
 20
197.5478330269174
 30
0.0
 10
263.1754819274873
 20
197.4381007428133
 30
0.0
 10
263.252629413203
 20
197.4039804294945
 30
0.0
 10
263.4106501326255
 20
197.3409228493101
 30
0.0
 10
263.4915591831346
 20
197.3119732178093
 30
0.0
 10
263.7399147911465
 20
197.2335017675306
 30
0.0
 10
263.9103713715966
 20
197.1931156310379
 30
0.0
 10
264.1737283831201
 20
197.1517653840754
 30
0.0
 10
264.2628001888051
 20
197.1411985888273
 30
0.0
 10
264.4436888551493
 20
197.1269110805849
 30
0.0
 10
264.5355044192981
 20
197.1231880252101
 30
0.0
 10
264.6288340336134
 20
197.1231880252101
 30
0.0
  0
SPLINE
  5
17F
330
1F
100
AcDbEntity
  8
1
  6
Continuous
 62
   252
370
    18
100
AcDbSpline
210
0.0
220
0.0
230
1.0
 70
    24
 71
     3
 72
     8
 73
     4
 74
     0
 42
0.000000001
 43
0.0000000001
 40
0.0
 40
0.0
 40
0.0
 40
0.0
 40
1.0
 40
1.0
 40
1.0
 40
1.0
 10
247.1288340336134
 20
196.7124097578796
 30
0.0
 10
247.1288340336134
 20
197.345573829277
 30
0.0
 10
247.1288340336134
 20
197.9789977360578
 30
0.0
 10
247.1288340336134
 20
198.6126448942197
 30
0.0
  0
SPLINE
  5
180
330
1F
100
AcDbEntity
  8
1
  6
Continuous
 62
   252
370
    13
100
AcDbSpline
210
0.0
220
0.0
230
1.0
 70
     8
 71
     3
 72
     8
 73
     4
 74
     0
 42
0.000000001
 43
0.0000000001
 40
0.0
 40
0.0
 40
0.0
 40
0.0
 40
1.0
 40
1.0
 40
1.0
 40
1.0
 10
248.2726248832866
 20
197.8572605679652
 30
0.0
 10
248.2664826458049
 20
196.8934693366539
 30
0.0
 10
248.2599049062597
 20
195.9302634220132
 30
0.0
 10
248.2527843930413
 20
194.9678036989556
 30
0.0
  0
SPLINE
  5
181
330
1F
100
AcDbEntity
  8
1
  6
Continuous
 62
   252
370
    13
100
AcDbSpline
210
0.0
220
0.0
230
1.0
 70
     8
 71
     3
 72
    32
 73
    28
 74
     0
 42
0.000000001
 43
0.0000000001
 40
0.0
 40
0.0
 40
0.0
 40
0.0
 40
0.0624999999999978
 40
0.0624999999999978
 40
0.1249999999999957
 40
0.1249999999999957
 40
0.2499999999999921
 40
0.2499999999999921
 40
0.2656249999999921
 40
0.2656249999999921
 40
0.2812499999999921
 40
0.3124999999999919
 40
0.3749999999999922
 40
0.3749999999999922
 40
0.4999999999999929
 40
0.4999999999999929
 40
0.6249999999999936
 40
0.6249999999999936
 40
0.6406249999999943
 40
0.6406249999999943
 40
0.6562499999999951
 40
0.6874999999999959
 40
0.7499999999999967
 40
0.7499999999999967
 40
0.8749999999999983
 40
0.8749999999999983
 40
1.0
 40
1.0
 40
1.0
 40
1.0
 10
265.1464271096861
 20
194.9678036989556
 30
0.0
 10
265.0163087662089
 20
194.9678036989556
 30
0.0
 10
264.8875841208875
 20
194.9725017654783
 30
0.0
 10
264.6327361634105
 20
194.9907738609349
 30
0.0
 10
264.5066135219366
 20
195.0043495300604
 30
0.0
 10
264.1319937785307
 20
195.0578999537173
 30
0.0
 10
263.8872171840856
 20
195.1106366145336
 30
0.0
 10
263.6173986595161
 20
195.1886216013282
 30
0.0
 10
263.5874730098805
 20
195.1975544001117
 30
0.0
 10
263.527912205869
 20
195.2158994174899
 30
0.0
 10
263.4390184008776
 20
195.2441308812717
 30
0.0
 10
263.2347017680527
 20
195.3149383273477
 30
0.0
 10
263.0648040669018
 20
195.3838900654644
 30
0.0
 10
262.7318623801035
 20
195.5324253759491
 30
0.0
 10
262.5190081829836
 20
195.6455849374061
 30
0.0
 10
262.1117211770706
 20
195.8992498084812
 30
0.0
 10
261.9172887800869
 20
196.0397578650412
 30
0.0
 10
261.7096027930646
 20
196.2134035824316
 30
0.0
 10
261.6866842811674
 20
196.2329124567902
 30
0.0
 10
261.6413146305016
 20
196.272228235067
 30
0.0
 10
261.5739013189699
 20
196.3316986430967
 30
0.0
 10
261.4210722670098
 20
196.4739015902208
 30
0.0
 10
261.2976807774893
 20
196.6015620367795
 30
0.0
 10
261.0609918287811
 20
196.8643367085579
 30
0.0
 10
260.9166216918667
 20
197.0494304636951
 30
0.0
 10
260.6553635087983
 20
197.4388443708479
 30
0.0
 10
260.538466623656
 20
197.6431605949007
 30
0.0
 10
260.4362587949984
 20
197.8572605679653
 30
0.0
  0
SPLINE
  5
182
330
1F
100
AcDbEntity
  8
1
  6
Continuous
 62
   252
370
    18
100
AcDbSpline
210
0.0
220
0.0
230
1.0
 70
     8
 71
     3
 72
    19
 73
    15
 74
     0
 42
0.000000001
 43
0.0000000001
 40
0.0
 40
0.0
 40
0.0
 40
0.0
 40
0.0181369386479545
 40
0.1070731843721993
 40
0.1961905075441457
 40
0.2860557327839465
 40
0.3768742216168696
 40
0.4690940664094763
 40
0.5590442244403967
 40
0.6528175382643688
 40
0.7464644268751729
 40
0.8385095481453483
 40
0.9281317066093095
 40
1.0
 40
1.0
 40
1.0
 40
1.0
 10
94.06759547642078
 20
59.71476165299875
 30
0.0
 10
94.08275138709614
 20
59.70682850267742
 30
0.0
 10
94.17347376793442
 20
59.65733066747273
 30
0.0
 10
94.3613040439801
 20
59.52557226337565
 30
0.0
 10
94.62631775330298
 20
59.3136995922653
 30
0.0
 10
94.90565693533101
 20
59.0533509863358
 30
0.0
 10
95.19345622958494
 20
58.74981110024704
 30
0.0
 10
95.48448740663261
 20
58.40578017588673
 30
0.0
 10
95.78022474859382
 20
58.02387592480758
 30
0.0
 10
96.07414328564901
 20
57.61043843527693
 30
0.0
 10
96.36398845672974
 20
57.16662650037654
 30
0.0
 10
96.63960625657384
 20
56.70622824758865
 30
0.0
 10
96.88235295181693
 20
56.26474410527979
 30
0.0
 10
97.02623071436189
 20
55.97585829236871
 30
0.0
 10
97.088449805976
 20
55.84561618399074
 30
0.0
  0
SPLINE
  5
183
330
1F
100
AcDbEntity
  8
1
  6
Continuous
 62
   252
370
    18
100
AcDbSpline
210
0.0
220
0.0
230
1.0
 70
     8
 71
     3
 72
    19
 73
    15
 74
     0
 42
0.000000001
 43
0.0000000001
 40
0.0
 40
0.0
 40
0.0
 40
0.0
 40
0.018136938647942
 40
0.1070731843721853
 40
0.1961905075441316
 40
0.28605573278393
 40
0.3768742216168445
 40
0.469094066409453
 40
0.5590442244403943
 40
0.6528175382643575
 40
0.7464644268751559
 40
0.8385095481453404
 40
0.9281317066093009
 40
1.0
 40
1.0
 40
1.0
 40
1.0
 10
145.5797784731591
 20
74.20041691842971
 30
0.0
 10
145.5646225624837
 20
74.20835006875103
 30
0.0
 10
145.4739001816455
 20
74.25784790395572
 30
0.0
 10
145.2860699055998
 20
74.38960630805279
 30
0.0
 10
145.0210561962769
 20
74.60147897916312
 30
0.0
 10
144.7417170142489
 20
74.86182758509263
 30
0.0
 10
144.453917719995
 20
75.16536747118136
 30
0.0
 10
144.1628865429473
 20
75.50939839554167
 30
0.0
 10
143.8671492009861
 20
75.89130264662084
 30
0.0
 10
143.5732306639309
 20
76.3047401361515
 30
0.0
 10
143.2833854928502
 20
76.74855207105188
 30
0.0
 10
143.0077676930061
 20
77.20895032383977
 30
0.0
 10
142.7650209977629
 20
77.65043446614865
 30
0.0
 10
142.621143235218
 20
77.93932027905974
 30
0.0
 10
142.5589241436039
 20
78.06956238743773
 30
0.0
  0
SPLINE
  5
184
330
1F
100
AcDbEntity
  8
1
  6
Continuous
 62
   252
370
    18
100
AcDbSpline
210
0.0
220
0.0
230
1.0
 70
     8
 71
     3
 72
    13
 73
     9
 74
     0
 42
0.000000001
 43
0.0000000001
 40
0.0
 40
0.0
 40
0.0
 40
0.0
 40
0.1104157671479245
 40
0.3204847072989461
 40
0.5261590414877447
 40
0.7355827946725568
 40
0.9544060784356072
 40
1.0
 40
1.0
 40
1.0
 40
1.0
 10
93.48095584232259
 20
59.96416704503898
 30
0.0
 10
93.48010796266897
 20
59.96466908499718
 30
0.0
 10
93.48639030518166
 20
59.96401583339522
 30
0.0
 10
93.54677500950733
 20
59.95665315008531
 30
0.0
 10
93.66297333069545
 20
59.92354717403271
 30
0.0
 10
93.82455584787776
 20
59.85618949087288
 30
0.0
 10
93.96384111790199
 20
59.78788544387644
 30
0.0
 10
94.05293495171253
 20
59.73211366050067
 30
0.0
 10
94.06856836138581
 20
59.72212629136384
 30
0.0
  0
SPLINE
  5
185
330
1F
100
AcDbEntity
  8
1
  6
Continuous
 62
   252
370
    18
100
AcDbSpline
210
0.0
220
0.0
230
1.0
 70
     8
 71
     3
 72
    13
 73
     9
 74
     0
 42
0.000000001
 43
0.0000000001
 40
0.0
 40
0.0
 40
0.0
 40
0.0
 40
0.1104157671479142
 40
0.3204847072989556
 40
0.5261590414877517
 40
0.7355827946725344
 40
0.9544060784356141
 40
1.0
 40
1.0
 40
1.0
 40
1.0
 10
146.1664181072573
 20
73.95101152638948
 30
0.0
 10
146.1672659869109
 20
73.95050948643129
 30
0.0
 10
146.1609836443982
 20
73.95116273803325
 30
0.0
 10
146.1005989400726
 20
73.95852542134317
 30
0.0
 10
145.9844006188844
 20
73.99163139739576
 30
0.0
 10
145.8228181017021
 20
74.05898908055559
 30
0.0
 10
145.6835328316779
 20
74.12729312755202
 30
0.0
 10
145.5944389978673
 20
74.1830649109278
 30
0.0
 10
145.578805588194
 20
74.19305228006463
 30
0.0
  0
SPLINE
  5
186
330
1F
100
AcDbEntity
  8
1
  6
Continuous
 62
   252
370
    18
100
AcDbSpline
210
0.0
220
0.0
230
1.0
 70
     8
 71
     3
 72
    48
 73
    44
 74
     0
 42
0.000000001
 43
0.0000000001
 40
0.0
 40
0.0
 40
0.0
 40
0.0
 40
0.0624999999999984
 40
0.0624999999999984
 40
0.1249999999999968
 40
0.1249999999999968
 40
0.1562499999999961
 40
0.1562499999999961
 40
0.1718749999999949
 40
0.1718749999999949
 40
0.1874999999999937
 40
0.1874999999999937
 40
0.2499999999999908
 40
0.2499999999999908
 40
0.312499999999988
 40
0.312499999999988
 40
0.3437499999999873
 40
0.3593749999999876
 40
0.3593749999999876
 40
0.3749999999999878
 40
0.3749999999999878
 40
0.4374999999999889
 40
0.4374999999999889
 40
0.4999999999999899
 40
0.4999999999999899
 40
0.5312499999999906
 40
0.5468749999999907
 40
0.5468749999999907
 40
0.5624999999999909
 40
0.5624999999999909
 40
0.6249999999999921
 40
0.6249999999999921
 40
0.6874999999999934
 40
0.6874999999999934
 40
0.7499999999999948
 40
0.7499999999999948
 40
0.7812499999999957
 40
0.7812499999999957
 40
0.8124999999999966
 40
0.8124999999999966
 40
0.8749999999999976
 40
0.8749999999999976
 40
1.0
 40
1.0
 40
1.0
 40
1.0
 10
104.0653065050048
 20
59.95759385687096
 30
0.0
 10
104.0653105593983
 20
59.95758471455754
 30
0.0
 10
104.0683214647376
 20
59.95079537830234
 30
0.0
 10
104.0801792185066
 20
59.92419275600412
 30
0.0
 10
104.0890250111868
 20
59.9043819540544
 30
0.0
 10
104.1067635614525
 20
59.86498631027418
 30
0.0
 10
104.1134237806309
 20
59.85023781223563
 30
0.0
 10
104.1245690479791
 20
59.82567030662535
 30
0.0
 10
104.1284767834325
 20
59.81707346627397
 30
0.0
 10
104.1366851394508
 20
59.79905853306435
 30
0.0
 10
104.1409932905117
 20
59.78962401173087
 30
0.0
 10
104.163431628573
 20
59.74061254910874
 30
0.0
 10
104.1842136769705
 20
59.69560115143788
 30
0.0
 10
104.2314793826238
 20
59.59466465630403
 30
0.0
 10
104.2579638768154
 20
59.53873676609285
 30
0.0
 10
104.3021785620845
 20
59.44690209898704
 30
0.0
 10
104.3254105914905
 20
59.39899522746735
 30
0.0
 10
104.3503938658412
 20
59.34811734961534
 30
0.0
 10
104.367447451086
 20
59.31353783588663
 30
0.0
 10
104.3761763299276
 20
59.29591170169697
 30
0.0
 10
104.4205671534443
 20
59.20667004572337
 30
0.0
 10
104.4586621668054
 20
59.13132596177463
 30
0.0
 10
104.5401271753722
 20
58.97340586953181
 30
0.0
 10
104.5834977906523
 20
58.89082755955885
 30
0.0
 10
104.6526961515138
 20
58.76186426753174
 30
0.0
 10
104.6883324501304
 20
58.69610633174311
 30
0.0
 10
104.7255727000737
 20
58.62847692927907
 30
0.0
 10
104.7507622725799
 20
58.58297835624303
 30
0.0
 10
104.7635339420526
 20
58.56003140408343
 30
0.0
 10
104.8279789095583
 20
58.44487077505365
 30
0.0
 10
104.8816635317736
 20
58.35092499228527
 30
0.0
 10
104.9933493348947
 20
58.15987251838537
 30
0.0
 10
105.0513508448985
 20
58.06276452068629
 30
0.0
 10
105.1717902590719
 20
57.86573881581641
 30
0.0
 10
105.2342282287122
 20
57.76582035463278
 30
0.0
 10
105.3313425967511
 20
57.61403249883297
 30
0.0
 10
105.3641137990635
 20
57.56339482217694
 30
0.0
 10
105.4303419652285
 20
57.4622343434977
 30
0.0
 10
105.4638173573056
 20
57.41168271308068
 30
0.0
 10
105.5653285773607
 20
57.26014151378216
 30
0.0
 10
105.6344489454926
 20
57.15926652885673
 30
0.0
 10
105.8461770142469
 20
56.85728430606859
 30
0.0
 10
105.993143911122
 20
56.65682909109012
 30
0.0
 10
106.1460961364941
 20
56.45758928571426
 30
0.0
  0
SPLINE
  5
187
330
1F
100
AcDbEntity
  8
1
  6
Continuous
 62
   252
370
    13
100
AcDbSpline
210
0.0
220
0.0
230
1.0
 70
     8
 71
     3
 72
    14
 73
    10
 74
     0
 42
0.000000001
 43
0.0000000001
 40
0.0
 40
0.0
 40
0.0
 40
0.0
 40
0.25
 40
0.25
 40
0.5
 40
0.5
 40
0.75
 40
0.75
 40
1.0
 40
1.0
 40
1.0
 40
1.0
 10
93.46557626859554
 20
59.95758928571426
 30
0.0
 10
93.56727064474377
 20
59.95758928571426
 30
0.0
 10
93.67102420233795
 20
59.95015502307083
 30
0.0
 10
93.88229493908716
 20
59.92230751190188
 30
0.0
 10
93.9898143300153
 20
59.90188403269782
 30
0.0
 10
94.20842314348435
 20
59.84923095358723
 30
0.0
 10
94.31951363854819
 20
59.81699623901628
 30
0.0
 10
94.54517777361721
 20
59.74143084153602
 30
0.0
 10
94.65975186696025
 20
59.69809777630829
 30
0.0
 10
94.77606681414952
 20
59.64939290851828
 30
0.0
  0
SPLINE
  5
188
330
1F
100
AcDbEntity
  8
1
  6
Continuous
 62
   252
370
    18
100
AcDbSpline
210
0.0
220
0.0
230
1.0
 70
     8
 71
     3
 72
    48
 73
    44
 74
     0
 42
0.000000001
 43
0.0000000001
 40
0.0
 40
0.0
 40
0.0
 40
0.0
 40
0.0624999999999938
 40
0.0624999999999938
 40
0.1249999999999876
 40
0.1249999999999876
 40
0.1562499999999845
 40
0.1562499999999845
 40
0.1718749999999837
 40
0.1718749999999837
 40
0.1874999999999828
 40
0.1874999999999828
 40
0.2499999999999816
 40
0.2499999999999816
 40
0.3124999999999802
 40
0.3124999999999802
 40
0.3437499999999803
 40
0.3593749999999812
 40
0.3593749999999812
 40
0.3749999999999821
 40
0.3749999999999821
 40
0.4374999999999846
 40
0.4374999999999846
 40
0.4999999999999872
 40
0.4999999999999872
 40
0.5312499999999882
 40
0.5468749999999887
 40
0.5468749999999887
 40
0.5624999999999891
 40
0.5624999999999891
 40
0.6249999999999903
 40
0.6249999999999903
 40
0.6874999999999917
 40
0.6874999999999917
 40
0.7499999999999929
 40
0.7499999999999929
 40
0.7812499999999936
 40
0.7812499999999936
 40
0.8124999999999942
 40
0.8124999999999942
 40
0.8749999999999962
 40
0.8749999999999962
 40
1.0
 40
1.0
 40
1.0
 40
1.0
 10
135.5820674445749
 20
73.95758471455747
 30
0.0
 10
135.5820633901816
 20
73.95759385687096
 30
0.0
 10
135.5790524848423
 20
73.96438319312615
 30
0.0
 10
135.5671947310733
 20
73.99098581542437
 30
0.0
 10
135.5583489383931
 20
74.0107966173741
 30
0.0
 10
135.5406103881273
 20
74.05019226115431
 30
0.0
 10
135.533950168949
 20
74.06494075919285
 30
0.0
 10
135.5228049016008
 20
74.08950826480314
 30
0.0
 10
135.5188971661474
 20
74.09810510515452
 30
0.0
 10
135.510688810129
 20
74.11612003836414
 30
0.0
 10
135.5063806590682
 20
74.12555455969762
 30
0.0
 10
135.4839423210069
 20
74.17456602231975
 30
0.0
 10
135.4631602726094
 20
74.21957741999061
 30
0.0
 10
135.415894566956
 20
74.32051391512445
 30
0.0
 10
135.3894100727645
 20
74.37644180533565
 30
0.0
 10
135.3451953874953
 20
74.46827647244145
 30
0.0
 10
135.3219633580893
 20
74.51618334396113
 30
0.0
 10
135.2969800837387
 20
74.56706122181315
 30
0.0
 10
135.2799264984938
 20
74.60164073554185
 30
0.0
 10
135.2711976196523
 20
74.61926686973152
 30
0.0
 10
135.2268067961356
 20
74.70850852570513
 30
0.0
 10
135.1887117827744
 20
74.78385260965386
 30
0.0
 10
135.1072467742077
 20
74.94177270189668
 30
0.0
 10
135.0638761589276
 20
75.02435101186964
 30
0.0
 10
134.9946777980661
 20
75.15331430389675
 30
0.0
 10
134.9590414994495
 20
75.21907223968539
 30
0.0
 10
134.9218012495062
 20
75.28670164214942
 30
0.0
 10
134.8966116769999
 20
75.33220021518547
 30
0.0
 10
134.8838400075272
 20
75.35514716734507
 30
0.0
 10
134.8193950400215
 20
75.47030779637484
 30
0.0
 10
134.7657104178062
 20
75.56425357914323
 30
0.0
 10
134.6540246146852
 20
75.75530605304313
 30
0.0
 10
134.5960231046813
 20
75.8524140507422
 30
0.0
 10
134.4755836905079
 20
76.0494397556121
 30
0.0
 10
134.4131457208677
 20
76.14935821679572
 30
0.0
 10
134.3160313528288
 20
76.30114607259551
 30
0.0
 10
134.2832601505164
 20
76.35178374925155
 30
0.0
 10
134.2170319843514
 20
76.4529442279308
 30
0.0
 10
134.1835565922742
 20
76.50349585834782
 30
0.0
 10
134.0820453722192
 20
76.65503705764634
 30
0.0
 10
134.0129250040872
 20
76.75591204257177
 30
0.0
 10
133.801196935333
 20
77.0578942653599
 30
0.0
 10
133.6542300384579
 20
77.25834948033838
 30
0.0
 10
133.5012778130857
 20
77.45758928571425
 30
0.0
  0
SPLINE
  5
189
330
1F
100
AcDbEntity
  8
1
  6
Continuous
 62
   252
370
    13
100
AcDbSpline
210
0.0
220
0.0
230
1.0
 70
     8
 71
     3
 72
    14
 73
    10
 74
     0
 42
0.000000001
 43
0.0000000001
 40
0.0
 40
0.0
 40
0.0
 40
0.0
 40
0.25
 40
0.25
 40
0.5
 40
0.5
 40
0.75
 40
0.75
 40
1.0
 40
1.0
 40
1.0
 40
1.0
 10
146.1817976809843
 20
73.9575892857142
 30
0.0
 10
146.0801033048361
 20
73.9575892857142
 30
0.0
 10
145.9763497472419
 20
73.96502354835764
 30
0.0
 10
145.7650790104927
 20
73.99287105952658
 30
0.0
 10
145.6575596195646
 20
74.01329453873063
 30
0.0
 10
145.4389508060955
 20
74.06594761784123
 30
0.0
 10
145.3278603110317
 20
74.0981823324122
 30
0.0
 10
145.1021961759627
 20
74.17374772989244
 30
0.0
 10
144.9876220826196
 20
74.21708079512018
 30
0.0
 10
144.8713071354304
 20
74.26578566291019
 30
0.0
  0
SPLINE
  5
18A
330
1F
100
AcDbEntity
  8
1
  6
Continuous
 62
   252
370
    13
100
AcDbSpline
210
0.0
220
0.0
230
1.0
 70
     8
 71
     3
 72
    29
 73
    25
 74
     0
 42
0.000000001
 43
0.0000000001
 40
0.0
 40
0.0
 40
0.0
 40
0.0
 40
0.1250000000000019
 40
0.1250000000000019
 40
0.2500000000000039
 40
0.2500000000000039
 40
0.3750000000000058
 40
0.3750000000000058
 40
0.4062500000000057
 40
0.4062500000000057
 40
0.4375000000000054
 40
0.5000000000000056
 40
0.5000000000000056
 40
0.6250000000000046
 40
0.6250000000000046
 40
0.6875000000000038
 40
0.6875000000000038
 40
0.750000000000003
 40
0.750000000000003
 40
0.8750000000000017
 40
0.8750000000000017
 40
0.9375000000000008
 40
0.9375000000000008
 40
1.0
 40
1.0
 40
1.0
 40
1.0
 10
144.8713071354304
 20
74.26578566291022
 30
0.0
 10
144.7134505897754
 20
74.33188535492492
 30
0.0
 10
144.5566791199904
 20
74.40757059572448
 30
0.0
 10
144.244525426966
 20
74.57728829104963
 30
0.0
 10
144.0891447618757
 20
74.67132354159861
 30
0.0
 10
143.7789719064352
 20
74.87757902876845
 30
0.0
 10
143.6241811303596
 20
74.98979634685898
 30
0.0
 10
143.4305181283609
 20
75.14173574769431
 30
0.0
 10
143.3918384540104
 20
75.17266155641978
 30
0.0
 10
143.3148345034875
 20
75.2353702258488
 30
0.0
 10
143.1997433591368
 20
75.33081203939656
 30
0.0
 10
143.0858313536346
 20
75.43034279184042
 30
0.0
 10
142.8594270321794
 20
75.63478535055751
 30
0.0
 10
142.7103752905798
 20
75.77823077784761
 30
0.0
 10
142.4891579077686
 20
76.00423717958806
 30
0.0
 10
142.4158141522406
 20
76.08138466530374
 30
0.0
 10
142.2698677012921
 20
76.23940538472628
 30
0.0
 10
142.197232976484
 20
76.32031443523537
 30
0.0
 10
141.9805965729479
 20
76.56867004324732
 30
0.0
 10
141.8400805322458
 20
76.7391266236974
 30
0.0
 10
141.6353431716445
 20
77.00248363522094
 30
0.0
 10
141.5681107320985
 20
77.0915554409059
 30
0.0
 10
141.4358125417567
 20
77.27244410725004
 30
0.0
 10
141.3707455894745
 20
77.36425967139894
 30
0.0
 10
141.3068842697838
 20
77.4575892857142
 30
0.0
  0
SPLINE
  5
18B
330
1F
100
AcDbEntity
  8
1
  6
Continuous
 62
   252
370
    13
100
AcDbSpline
210
0.0
220
0.0
230
1.0
 70
     8
 71
     3
 72
    29
 73
    25
 74
     0
 42
0.000000001
 43
0.0000000001
 40
0.0
 40
0.0
 40
0.0
 40
0.0
 40
0.1250000000000006
 40
0.1250000000000006
 40
0.2500000000000011
 40
0.2500000000000011
 40
0.3750000000000019
 40
0.3750000000000019
 40
0.4062500000000012
 40
0.4062500000000012
 40
0.4375000000000005
 40
0.5000000000000012
 40
0.5000000000000012
 40
0.6250000000000018
 40
0.6250000000000018
 40
0.6875000000000017
 40
0.6875000000000017
 40
0.7500000000000017
 40
0.7500000000000017
 40
0.8750000000000011
 40
0.8750000000000011
 40
0.9375000000000006
 40
0.9375000000000006
 40
1.0
 40
1.0
 40
1.0
 40
1.0
 10
94.77606681414943
 20
59.64939290851825
 30
0.0
 10
94.93392335980444
 20
59.58329321650355
 30
0.0
 10
95.09069482958944
 20
59.50760797570399
 30
0.0
 10
95.40284852261382
 20
59.33789028037884
 30
0.0
 10
95.55822918770414
 20
59.24385502982985
 30
0.0
 10
95.86840204314463
 20
59.03759954266003
 30
0.0
 10
96.02319281922027
 20
58.92538222456949
 30
0.0
 10
96.21685582121891
 20
58.77344282373416
 30
0.0
 10
96.25553549556945
 20
58.74251701500869
 30
0.0
 10
96.33253944609234
 20
58.67980834557967
 30
0.0
 10
96.44763059044304
 20
58.5843665320319
 30
0.0
 10
96.5615425959453
 20
58.48483577958806
 30
0.0
 10
96.78794691740049
 20
58.28039322087096
 30
0.0
 10
96.93699865900003
 20
58.13694779358086
 30
0.0
 10
97.15821604181127
 20
57.91094139184041
 30
0.0
 10
97.23155979733924
 20
57.83379390612472
 30
0.0
 10
97.37750624828777
 20
57.67577318670219
 30
0.0
 10
97.45014097309588
 20
57.5948641361931
 30
0.0
 10
97.66677737663203
 20
57.34650852818114
 30
0.0
 10
97.80729341733407
 20
57.17605194773107
 30
0.0
 10
98.01203077793537
 20
56.91269493620754
 30
0.0
 10
98.07926321748141
 20
56.82362313052258
 30
0.0
 10
98.21156140782315
 20
56.64273446417843
 30
0.0
 10
98.27662836010535
 20
56.55091890002953
 30
0.0
 10
98.34048967979608
 20
56.45758928571427
 30
0.0
  0
SPLINE
  5
18C
330
1F
100
AcDbEntity
  8
1
  6
Continuous
 62
   252
370
    18
100
AcDbSpline
210
0.0
220
0.0
230
1.0
 70
    24
 71
     3
 72
     8
 73
     4
 74
     0
 42
0.000000001
 43
0.0000000001
 40
0.0
 40
0.0
 40
0.0
 40
0.0
 40
1.0
 40
1.0
 40
1.0
 40
1.0
 10
115.4011226876672
 20
74.95758928571428
 30
0.0
 10
115.4012434179795
 20
74.95758928571428
 30
0.0
 10
115.3896141390919
 20
74.95758928571428
 30
0.0
 10
115.3662725484178
 20
74.95758928571428
 30
0.0
  0
SPLINE
  5
18D
330
1F
100
AcDbEntity
  8
1
  6
Continuous
 62
   252
370
    18
100
AcDbSpline
210
0.0
220
0.0
230
1.0
 70
    24
 71
     3
 72
     8
 73
     4
 74
     0
 42
0.000000001
 43
0.0000000001
 40
0.0
 40
0.0
 40
0.0
 40
0.0
 40
1.0
 40
1.0
 40
1.0
 40
1.0
 10
124.281101401162
 20
58.95758928571426
 30
0.0
 10
124.3556350678287
 20
58.95758928571426
 30
0.0
 10
124.4301687344954
 20
58.95758928571426
 30
0.0
 10
124.504702401162
 20
58.95758928571426
 30
0.0
  0
SPLINE
  5
18E
330
1F
100
AcDbEntity
  8
1
  6
Continuous
 62
   252
370
    18
100
AcDbSpline
210
0.0
220
0.0
230
1.0
 70
    24
 71
     3
 72
     8
 73
     4
 74
     0
 42
0.000000001
 43
0.0000000001
 40
0.0
 40
0.0
 40
0.0
 40
0.0
 40
1.0
 40
1.0
 40
1.0
 40
1.0
 10
124.246251261912
 20
58.95758928571426
 30
0.0
 10
124.2461305316435
 20
58.95758928571426
 30
0.0
 10
124.2577598105312
 20
58.95758928571426
 30
0.0
 10
124.281101401162
 20
58.95758928571426
 30
0.0
  0
SPLINE
  5
18F
330
1F
100
AcDbEntity
  8
1
  6
Continuous
 62
   252
370
    18
100
AcDbSpline
210
0.0
220
0.0
230
1.0
 70
    24
 71
     3
 72
     8
 73
     4
 74
     0
 42
0.000000001
 43
0.0000000001
 40
0.0
 40
0.0
 40
0.0
 40
0.0
 40
1.0
 40
1.0
 40
1.0
 40
1.0
 10
115.3662725484178
 20
74.95758928571428
 30
0.0
 10
115.3005495484178
 20
74.95758928571428
 30
0.0
 10
115.2348265484178
 20
74.95758928571428
 30
0.0
 10
115.1691035484178
 20
74.95758928571428
 30
0.0
  0
SPLINE
  5
190
330
1F
100
AcDbEntity
  8
1
  6
Continuous
 62
   252
370
    18
100
AcDbSpline
210
0.0
220
0.0
230
1.0
 70
    24
 71
     3
 72
     8
 73
     4
 74
     0
 42
0.000000001
 43
0.0000000001
 40
0.0
 40
0.0
 40
0.0
 40
0.0
 40
1.0
 40
1.0
 40
1.0
 40
1.0
 10
112.583836520309
 20
58.95758928571426
 30
0.0
 10
112.7126578728955
 20
58.95758928571426
 30
0.0
 10
112.841479225482
 20
58.95758928571426
 30
0.0
 10
112.9703005780685
 20
58.95758928571426
 30
0.0
  0
SPLINE
  5
191
330
1F
100
AcDbEntity
  8
1
  6
Continuous
 62
   252
370
    18
100
AcDbSpline
210
0.0
220
0.0
230
1.0
 70
    24
 71
     3
 72
     8
 73
     4
 74
     0
 42
0.000000001
 43
0.0000000001
 40
0.0
 40
0.0
 40
0.0
 40
0.0
 40
1.0
 40
1.0
 40
1.0
 40
1.0
 10
127.0635374292708
 20
74.95758928571425
 30
0.0
 10
126.9347160766843
 20
74.95758928571425
 30
0.0
 10
126.8058947240978
 20
74.95758928571425
 30
0.0
 10
126.6770733715113
 20
74.95758928571425
 30
0.0
  0
SPLINE
  5
192
330
1F
100
AcDbEntity
  8
1
  6
Continuous
 62
   252
370
    18
100
AcDbSpline
210
0.0
220
0.0
230
1.0
 70
    24
 71
     3
 72
     8
 73
     4
 74
     0
 42
0.000000001
 43
0.0000000001
 40
0.0
 40
0.0
 40
0.0
 40
0.0
 40
1.0
 40
1.0
 40
1.0
 40
1.0
 10
126.6770733715113
 20
74.95758928571425
 30
0.0
 10
126.6506849967757
 20
74.95758928571425
 30
0.0
 10
126.6242966220401
 20
74.95758928571425
 30
0.0
 10
126.5979082473045
 20
74.95758928571425
 30
0.0
  0
SPLINE
  5
193
330
1F
100
AcDbEntity
  8
1
  6
Continuous
 62
   252
370
    18
100
AcDbSpline
210
0.0
220
0.0
230
1.0
 70
    24
 71
     3
 72
     8
 73
     4
 74
     0
 42
0.000000001
 43
0.0000000001
 40
0.0
 40
0.0
 40
0.0
 40
0.0
 40
1.0
 40
1.0
 40
1.0
 40
1.0
 10
112.9703005780685
 20
58.95758928571426
 30
0.0
 10
112.9966889528042
 20
58.95758928571426
 30
0.0
 10
113.0230773275398
 20
58.95758928571426
 30
0.0
 10
113.0494657022754
 20
58.95758928571426
 30
0.0
  0
SPLINE
  5
194
330
1F
100
AcDbEntity
  8
1
  6
Continuous
 62
   252
370
    18
100
AcDbSpline
210
0.0
220
0.0
230
1.0
 70
    24
 71
     3
 72
    18
 73
    14
 74
     0
 42
0.000000001
 43
0.0000000001
 40
0.0
 40
0.0
 40
0.0
 40
0.0
 40
0.1495649658538015
 40
0.1495649658538015
 40
0.2982431783739891
 40
0.2982431783739891
 40
0.4919266876570461
 40
0.4919266876570461
 40
0.68488068211254
 40
0.68488068211254
 40
0.877113053618246
 40
0.877113053618246
 40
1.0
 40
1.0
 40
1.0
 40
1.0
 10
126.5979082473045
 20
74.95758928571425
 30
0.0
 10
126.5377971221103
 20
74.95758928571425
 30
0.0
 10
126.4575605830294
 20
74.95758928571425
 30
0.0
 10
126.2591951824444
 20
74.95758928571425
 30
0.0
 10
126.1275057391244
 20
74.95758928571425
 30
0.0
 10
125.7507696095922
 20
74.95758928571425
 30
0.0
 10
125.5479644626466
 20
74.95758928571425
 30
0.0
 10
125.1681186217631
 20
74.95758928571425
 30
0.0
 10
125.0066147019195
 20
74.95758928571425
 30
0.0
 10
124.7431834177028
 20
74.95758928571425
 30
0.0
 10
124.6468903442577
 20
74.95758928571425
 30
0.0
 10
124.5516768843595
 20
74.95758928571426
 30
0.0
 10
124.5330464363271
 20
74.95758928571425
 30
0.0
 10
124.5329612472974
 20
74.95758928571425
 30
0.0
  0
SPLINE
  5
195
330
1F
100
AcDbEntity
  8
1
  6
Continuous
 62
   252
370
    18
100
AcDbSpline
210
0.0
220
0.0
230
1.0
 70
    24
 71
     3
 72
    18
 73
    14
 74
     0
 42
0.000000001
 43
0.0000000001
 40
0.0
 40
0.0
 40
0.0
 40
0.0
 40
0.1495649663143458
 40
0.1495649663143458
 40
0.2982431792923472
 40
0.2982431792923472
 40
0.4919266891717995
 40
0.4919266891717995
 40
0.6848806842214423
 40
0.6848806842214423
 40
0.8771130563190752
 40
0.8771130563190752
 40
1.0
 40
1.0
 40
1.0
 40
1.0
 10
113.0494657022754
 20
58.95758928571426
 30
0.0
 10
113.1095768274696
 20
58.95758928571426
 30
0.0
 10
113.1898133665504
 20
58.95758928571426
 30
0.0
 10
113.3881787671355
 20
58.95758928571426
 30
0.0
 10
113.5198682104555
 20
58.95758928571426
 30
0.0
 10
113.8966043399876
 20
58.95758928571426
 30
0.0
 10
114.0994094869333
 20
58.95758928571426
 30
0.0
 10
114.4792553278168
 20
58.95758928571426
 30
0.0
 10
114.6407592476604
 20
58.95758928571426
 30
0.0
 10
114.9041905318771
 20
58.95758928571426
 30
0.0
 10
115.0004836053221
 20
58.95758928571426
 30
0.0
 10
115.09569706429
 20
58.95758928571426
 30
0.0
 10
115.114327512319
 20
58.95758928571427
 30
0.0
 10
115.114412702276
 20
58.95758928571428
 30
0.0
  0
SPLINE
  5
196
330
1F
100
AcDbEntity
  8
1
  6
Continuous
 62
   252
370
    18
100
AcDbSpline
210
0.0
220
0.0
230
1.0
 70
    24
 71
     3
 72
    10
 73
     6
 74
     0
 42
0.000000001
 43
0.0000000001
 40
0.0
 40
0.0
 40
0.0
 40
0.0
 40
0.3693835745600809
 40
0.3693835745600809
 40
1.0
 40
1.0
 40
1.0
 40
1.0
 10
115.1426698733833
 20
74.95758928571429
 30
0.0
 10
115.1426345918542
 20
74.95758928571428
 30
0.0
 10
115.1258590948895
 20
74.95758928571428
 30
0.0
 10
115.0349753668405
 20
74.95758928571428
 30
0.0
 10
114.9399314005182
 20
74.95758928571428
 30
0.0
 10
114.8069498733834
 20
74.95758928571428
 30
0.0
  0
SPLINE
  5
197
330
1F
100
AcDbEntity
  8
1
  6
Continuous
 62
   252
370
    18
100
AcDbSpline
210
0.0
220
0.0
230
1.0
 70
    24
 71
     3
 72
     8
 73
     4
 74
     0
 42
0.000000001
 43
0.0000000001
 40
0.0
 40
0.0
 40
0.0
 40
0.0
 40
1.0
 40
1.0
 40
1.0
 40
1.0
 10
113.6436798734086
 20
74.95758928571426
 30
0.0
 10
113.5807636871959
 20
74.95758928571426
 30
0.0
 10
113.5217673858721
 20
74.95758928571426
 30
0.0
 10
113.4666838734086
 20
74.95758928571426
 30
0.0
  0
SPLINE
  5
198
330
1F
100
AcDbEntity
  8
1
  6
Continuous
 62
   252
370
    18
100
AcDbSpline
210
0.0
220
0.0
230
1.0
 70
    24
 71
     3
 72
    10
 73
     6
 74
     0
 42
0.000000001
 43
0.0000000001
 40
0.0
 40
0.0
 40
0.0
 40
0.0
 40
0.3693835211996276
 40
0.3693835211996276
 40
1.0
 40
1.0
 40
1.0
 40
1.0
 10
124.5047040762208
 20
58.95758928571426
 30
0.0
 10
124.5047393654093
 20
58.95758928571426
 30
0.0
 10
124.5215148623785
 20
58.95758928571426
 30
0.0
 10
124.6123985827429
 20
58.95758928571426
 30
0.0
 10
124.7074425490734
 20
58.95758928571426
 30
0.0
 10
124.8404240762209
 20
58.95758928571426
 30
0.0
  0
SPLINE
  5
199
330
1F
100
AcDbEntity
  8
1
  6
Continuous
 62
   252
370
    18
100
AcDbSpline
210
0.0
220
0.0
230
1.0
 70
    24
 71
     3
 72
     8
 73
     4
 74
     0
 42
0.000000001
 43
0.0000000001
 40
0.0
 40
0.0
 40
0.0
 40
0.0
 40
1.0
 40
1.0
 40
1.0
 40
1.0
 10
126.0036940762246
 20
58.95758928571425
 30
0.0
 10
126.0666102624376
 20
58.95758928571425
 30
0.0
 10
126.1256065637615
 20
58.95758928571426
 30
0.0
 10
126.1806900762246
 20
58.95758928571426
 30
0.0
  0
SPLINE
  5
19A
330
1F
100
AcDbEntity
  8
1
  6
Continuous
 62
   252
370
    18
100
AcDbSpline
210
0.0
220
0.0
230
1.0
 70
    24
 71
     3
 72
    12
 73
     8
 74
     0
 42
0.000000001
 43
0.0000000001
 40
0.0
 40
0.0
 40
0.0
 40
0.0
 40
0.2077428754827507
 40
0.2077428754827507
 40
0.9304363626943565
 40
0.9304363626943565
 40
1.0
 40
1.0
 40
1.0
 40
1.0
 10
117.9156452054474
 20
74.95758928571426
 30
0.0
 10
117.9155712341973
 20
74.95758928571426
 30
0.0
 10
117.9132363991013
 20
74.95758928571426
 30
0.0
 10
117.8926318278052
 20
74.95758928571426
 30
0.0
 10
117.8489956223025
 20
74.95758928571426
 30
0.0
 10
117.7721118880104
 20
74.95758928571426
 30
0.0
 10
117.765226795634
 20
74.95758928571426
 30
0.0
 10
117.7582072054473
 20
74.95758928571426
 30
0.0
  0
SPLINE
  5
19B
330
1F
100
AcDbEntity
  8
1
  6
Continuous
 62
   252
370
    18
100
AcDbSpline
210
0.0
220
0.0
230
1.0
 70
    24
 71
     3
 72
    12
 73
     8
 74
     0
 42
0.000000001
 43
0.0000000001
 40
0.0
 40
0.0
 40
0.0
 40
0.0
 40
0.2077429019831973
 40
0.2077429019831973
 40
0.9304363651294933
 40
0.9304363651294933
 40
1.0
 40
1.0
 40
1.0
 40
1.0
 10
121.7317287440968
 20
58.95758928571427
 30
0.0
 10
121.7318027146314
 20
58.95758928571427
 30
0.0
 10
121.7341375497385
 20
58.95758928571426
 30
0.0
 10
121.7547421217747
 20
58.95758928571426
 30
0.0
 10
121.7983783272774
 20
58.95758928571426
 30
0.0
 10
121.8752620615579
 20
58.95758928571428
 30
0.0
 10
121.8821471539224
 20
58.95758928571428
 30
0.0
 10
121.8891667440966
 20
58.95758928571428
 30
0.0
  0
SPLINE
  5
19C
330
1F
100
AcDbEntity
  8
1
  6
Continuous
 62
   252
370
    18
100
AcDbSpline
210
0.0
220
0.0
230
1.0
 70
    24
 71
     3
 72
     8
 73
     4
 74
     0
 42
0.000000001
 43
0.0000000001
 40
0.0
 40
0.0
 40
0.0
 40
0.0
 40
1.0
 40
1.0
 40
1.0
 40
1.0
 10
119.0597178704608
 20
58.95758928571426
 30
0.0
 10
119.0660976695473
 20
58.95758928571426
 30
0.0
 10
119.110755014601
 20
58.95758928571426
 30
0.0
 10
119.1927787792447
 20
58.95758928571426
 30
0.0
  0
SPLINE
  5
19D
330
1F
100
AcDbEntity
  8
1
  6
Continuous
 62
   252
370
    18
100
AcDbSpline
210
0.0
220
0.0
230
1.0
 70
    24
 71
     3
 72
     8
 73
     4
 74
     0
 42
0.000000001
 43
0.0000000001
 40
0.0
 40
0.0
 40
0.0
 40
0.0
 40
1.0
 40
1.0
 40
1.0
 40
1.0
 10
120.5876560791191
 20
74.95758928571426
 30
0.0
 10
120.5812762800326
 20
74.95758928571426
 30
0.0
 10
120.5366189349789
 20
74.95758928571426
 30
0.0
 10
120.4545951703351
 20
74.95758928571426
 30
0.0
  0
SPLINE
  5
19E
330
1F
100
AcDbEntity
  8
1
  6
Continuous
 62
   252
370
    18
100
AcDbSpline
210
0.0
220
0.0
230
1.0
 70
    24
 71
     3
 72
     8
 73
     4
 74
     0
 42
0.000000001
 43
0.0000000001
 40
0.0
 40
0.0
 40
0.0
 40
0.0
 40
1.0
 40
1.0
 40
1.0
 40
1.0
 10
117.6855604694343
 20
74.95758928571426
 30
0.0
 10
117.6234053025109
 20
74.95758928571426
 30
0.0
 10
117.541382073599
 20
74.95758928571426
 30
0.0
 10
117.4385874138965
 20
74.95758928571426
 30
0.0
  0
SPLINE
  5
19F
330
1F
100
AcDbEntity
  8
1
  6
Continuous
 62
   252
370
    18
100
AcDbSpline
210
0.0
220
0.0
230
1.0
 70
    24
 71
     3
 72
     8
 73
     4
 74
     0
 42
0.000000001
 43
0.0000000001
 40
0.0
 40
0.0
 40
0.0
 40
0.0
 40
1.0
 40
1.0
 40
1.0
 40
1.0
 10
121.9618134801456
 20
58.95758928571426
 30
0.0
 10
122.023968647069
 20
58.95758928571426
 30
0.0
 10
122.1059918759809
 20
58.95758928571426
 30
0.0
 10
122.2087865356834
 20
58.95758928571426
 30
0.0
  0
SPLINE
  5
1A0
330
1F
100
AcDbEntity
  8
1
  6
Continuous
 62
   252
370
    18
100
AcDbSpline
210
0.0
220
0.0
230
1.0
 70
    24
 71
     3
 72
    16
 73
    12
 74
     0
 42
0.000000001
 43
0.0000000001
 40
0.0
 40
0.0
 40
0.0
 40
0.0
 40
0.2017302927074909
 40
0.2017302927074909
 40
0.4021551280973176
 40
0.4021551280973176
 40
0.6017551699258714
 40
0.6017551699258714
 40
0.8001995450780559
 40
0.8001995450780559
 40
1.0
 40
1.0
 40
1.0
 40
1.0
 10
117.4385874138965
 20
74.95758928571426
 30
0.0
 10
117.3365801513122
 20
74.95758928571426
 30
0.0
 10
117.1972844714651
 20
74.95758928571428
 30
0.0
 10
116.8486295963644
 20
74.95758928571428
 30
0.0
 10
116.6503498198846
 20
74.95758928571428
 30
0.0
 10
116.2122159508939
 20
74.95758928571428
 30
0.0
 10
116.0385188445226
 20
74.95758928571428
 30
0.0
 10
115.7778722518283
 20
74.95758928571428
 30
0.0
 10
115.6859789219724
 20
74.95758928571428
 30
0.0
 10
115.5772775381581
 20
74.95758928571428
 30
0.0
 10
115.5451201551165
 20
74.95758928571428
 30
0.0
 10
115.5351340909155
 20
74.95758928571428
 30
0.0
  0
SPLINE
  5
1A1
330
1F
100
AcDbEntity
  8
1
  6
Continuous
 62
   252
370
    18
100
AcDbSpline
210
0.0
220
0.0
230
1.0
 70
    24
 71
     3
 72
    16
 73
    12
 74
     0
 42
0.000000001
 43
0.0000000001
 40
0.0
 40
0.0
 40
0.0
 40
0.0
 40
0.2017302927074909
 40
0.2017302927074909
 40
0.4021551280973176
 40
0.4021551280973176
 40
0.6017551699258714
 40
0.6017551699258714
 40
0.8001995450780559
 40
0.8001995450780559
 40
1.0
 40
1.0
 40
1.0
 40
1.0
 10
122.2087865356834
 20
58.95758928571426
 30
0.0
 10
122.3107937982676
 20
58.95758928571426
 30
0.0
 10
122.4500894781147
 20
58.95758928571426
 30
0.0
 10
122.7987443532155
 20
58.95758928571426
 30
0.0
 10
122.9970241296953
 20
58.95758928571426
 30
0.0
 10
123.4351579986859
 20
58.95758928571426
 30
0.0
 10
123.6088551050572
 20
58.95758928571426
 30
0.0
 10
123.8695016977515
 20
58.95758928571426
 30
0.0
 10
123.9613950276074
 20
58.95758928571426
 30
0.0
 10
124.0700964114218
 20
58.95758928571426
 30
0.0
 10
124.1022537944633
 20
58.95758928571426
 30
0.0
 10
124.1122398586644
 20
58.95758928571426
 30
0.0
  0
SPLINE
  5
1A2
330
1F
100
AcDbEntity
  8
1
  6
Continuous
 62
   252
370
    18
100
AcDbSpline
210
0.0
220
0.0
230
1.0
 70
    24
 71
     3
 72
    16
 73
    12
 74
     0
 42
0.000000001
 43
0.0000000001
 40
0.0
 40
0.0
 40
0.0
 40
0.0
 40
0.2059956143897627
 40
0.2059956143897627
 40
0.4714296355707466
 40
0.4714296355707466
 40
0.7280384846920055
 40
0.7280384846920055
 40
0.9846473338132617
 40
0.9846473338132617
 40
1.0
 40
1.0
 40
1.0
 40
1.0
 10
115.4349650984116
 20
58.95758928571426
 30
0.0
 10
115.4350418792549
 20
58.95758928571426
 30
0.0
 10
115.5093300518557
 20
58.95758928571426
 30
0.0
 10
115.8483350756389
 20
58.95758928571426
 30
0.0
 10
116.1212302446957
 20
58.95758928571426
 30
0.0
 10
116.8159377131159
 20
58.95758928571426
 30
0.0
 10
117.1109278909848
 20
58.95758928571426
 30
0.0
 10
117.6043116505757
 20
58.95758928571426
 30
0.0
 10
117.7546405307264
 20
58.95758928571426
 30
0.0
 10
117.812080609548
 20
58.95758928571426
 30
0.0
 10
117.8161569030745
 20
58.95758928571426
 30
0.0
 10
117.8209510984222
 20
58.95758928571426
 30
0.0
  0
SPLINE
  5
1A3
330
1F
100
AcDbEntity
  8
1
  6
Continuous
 62
   252
370
    18
100
AcDbSpline
210
0.0
220
0.0
230
1.0
 70
    24
 71
     3
 72
    16
 73
    12
 74
     0
 42
0.000000001
 43
0.0000000001
 40
0.0
 40
0.0
 40
0.0
 40
0.0
 40
0.2059955967356441
 40
0.2059955967356441
 40
0.4714296238183633
 40
0.4714296238183633
 40
0.728038478645136
 40
0.728038478645136
 40
0.9846473334719061
 40
0.9846473334719061
 40
1.0
 40
1.0
 40
1.0
 40
1.0
 10
124.2124088511434
 20
74.95758928571425
 30
0.0
 10
124.2123320542883
 20
74.95758928571425
 30
0.0
 10
124.1380438817355
 20
74.95758928571425
 30
0.0
 10
123.7990388739409
 20
74.95758928571425
 30
0.0
 10
123.5261437048842
 20
74.95758928571425
 30
0.0
 10
122.831436236464
 20
74.95758928571425
 30
0.0
 10
122.5364460585951
 20
74.95758928571425
 30
0.0
 10
122.0430622990041
 20
74.95758928571426
 30
0.0
 10
121.8927334188535
 20
74.95758928571426
 30
0.0
 10
121.8352933400319
 20
74.95758928571426
 30
0.0
 10
121.8312170465054
 20
74.95758928571426
 30
0.0
 10
121.8264228511577
 20
74.95758928571426
 30
0.0
  0
SPLINE
  5
1A4
330
1F
100
AcDbEntity
  8
1
  6
Continuous
 62
   252
370
    18
100
AcDbSpline
210
0.0
220
0.0
230
1.0
 70
    24
 71
     3
 72
     8
 73
     4
 74
     0
 42
0.000000001
 43
0.0000000001
 40
0.0
 40
0.0
 40
0.0
 40
0.0
 40
1.0
 40
1.0
 40
1.0
 40
1.0
 10
118.4893370265464
 20
74.95758928571426
 30
0.0
 10
118.3475179776809
 20
74.95758928571426
 30
0.0
 10
118.2056989288154
 20
74.95758928571426
 30
0.0
 10
118.0638798799499
 20
74.95758928571426
 30
0.0
  0
SPLINE
  5
1A5
330
1F
100
AcDbEntity
  8
1
  6
Continuous
 62
   252
370
    18
100
AcDbSpline
210
0.0
220
0.0
230
1.0
 70
    24
 71
     3
 72
    10
 73
     6
 74
     0
 42
0.000000001
 43
0.0000000001
 40
0.0
 40
0.0
 40
0.0
 40
0.0
 40
0.2504519224872704
 40
0.2504519224872704
 40
1.0
 40
1.0
 40
1.0
 40
1.0
 10
119.0789637275416
 20
74.95758928571426
 30
0.0
 10
119.0297522211181
 20
74.95758928571426
 30
0.0
 10
118.9805407146945
 20
74.95758928571426
 30
0.0
 10
118.7840498835009
 20
74.95758928571426
 30
0.0
 10
118.6366677537879
 20
74.95758928571426
 30
0.0
 10
118.4893370265464
 20
74.95758928571426
 30
0.0
  0
SPLINE
  5
1A6
330
1F
100
AcDbEntity
  8
1
  6
Continuous
 62
   252
370
    18
100
AcDbSpline
210
0.0
220
0.0
230
1.0
 70
    24
 71
     3
 72
     8
 73
     4
 74
     0
 42
0.000000001
 43
0.0000000001
 40
0.0
 40
0.0
 40
0.0
 40
0.0
 40
1.0
 40
1.0
 40
1.0
 40
1.0
 10
121.1580369230335
 20
58.95758928571426
 30
0.0
 10
121.299855971899
 20
58.95758928571426
 30
0.0
 10
121.4416750207645
 20
58.95758928571426
 30
0.0
 10
121.58349406963
 20
58.95758928571426
 30
0.0
  0
SPLINE
  5
1A7
330
1F
100
AcDbEntity
  8
1
  6
Continuous
 62
   252
370
    18
100
AcDbSpline
210
0.0
220
0.0
230
1.0
 70
    24
 71
     3
 72
    10
 73
     6
 74
     0
 42
0.000000001
 43
0.0000000001
 40
0.0
 40
0.0
 40
0.0
 40
0.0
 40
0.2504519224872704
 40
0.2504519224872704
 40
1.0
 40
1.0
 40
1.0
 40
1.0
 10
120.5684102220382
 20
58.95758928571426
 30
0.0
 10
120.6176217284618
 20
58.95758928571426
 30
0.0
 10
120.6668332348854
 20
58.95758928571426
 30
0.0
 10
120.863324066079
 20
58.95758928571426
 30
0.0
 10
121.010706195792
 20
58.95758928571426
 30
0.0
 10
121.1580369230335
 20
58.95758928571426
 30
0.0
  0
SPLINE
  5
1A8
330
1F
100
AcDbEntity
  8
1
  6
Continuous
 62
   252
370
    18
100
AcDbSpline
210
0.0
220
0.0
230
1.0
 70
    24
 71
     3
 72
    10
 73
     6
 74
     0
 42
0.000000001
 43
0.0000000001
 40
0.0
 40
0.0
 40
0.0
 40
0.0
 40
0.7520822760251121
 40
0.7520822760251121
 40
1.0
 40
1.0
 40
1.0
 40
1.0
 10
120.0529415936511
 20
58.95758928571426
 30
0.0
 10
120.1816567714965
 20
58.95758928571426
 30
0.0
 10
120.3103719493419
 20
58.95758928571426
 30
0.0
 10
120.4815170247527
 20
58.95758928571426
 30
0.0
 10
120.5253025237546
 20
58.95758928571426
 30
0.0
 10
120.5684102220382
 20
58.95758928571426
 30
0.0
  0
SPLINE
  5
1A9
330
1F
100
AcDbEntity
  8
1
  6
Continuous
 62
   252
370
    18
100
AcDbSpline
210
0.0
220
0.0
230
1.0
 70
    24
 71
     3
 72
    10
 73
     6
 74
     0
 42
0.000000001
 43
0.0000000001
 40
0.0
 40
0.0
 40
0.0
 40
0.0
 40
0.7520822760251121
 40
0.7520822760251121
 40
1.0
 40
1.0
 40
1.0
 40
1.0
 10
119.5944323559288
 20
74.95758928571426
 30
0.0
 10
119.4657171780834
 20
74.95758928571426
 30
0.0
 10
119.3370020002379
 20
74.95758928571426
 30
0.0
 10
119.1658569248272
 20
74.95758928571426
 30
0.0
 10
119.1220714258253
 20
74.95758928571426
 30
0.0
 10
119.0789637275416
 20
74.95758928571426
 30
0.0
  0
SPLINE
  5
1AA
330
1F
100
AcDbEntity
  8
1
  6
Continuous
 62
   252
370
    18
100
AcDbSpline
210
0.0
220
0.0
230
1.0
 70
    24
 71
     3
 72
     8
 73
     4
 74
     0
 42
0.000000001
 43
0.0000000001
 40
0.0
 40
0.0
 40
0.0
 40
0.0
 40
1.0
 40
1.0
 40
1.0
 40
1.0
 10
120.0435766241773
 20
74.95758928571426
 30
0.0
 10
119.8938618680945
 20
74.95758928571426
 30
0.0
 10
119.7441471120116
 20
74.95758928571426
 30
0.0
 10
119.5944323559288
 20
74.95758928571426
 30
0.0
  0
SPLINE
  5
1AB
330
1F
100
AcDbEntity
  8
1
  6
Continuous
 62
   252
370
    18
100
AcDbSpline
210
0.0
220
0.0
230
1.0
 70
    24
 71
     3
 72
     8
 73
     4
 74
     0
 42
0.000000001
 43
0.0000000001
 40
0.0
 40
0.0
 40
0.0
 40
0.0
 40
1.0
 40
1.0
 40
1.0
 40
1.0
 10
120.4545951703351
 20
74.95758928571426
 30
0.0
 10
120.3175889882825
 20
74.95758928571426
 30
0.0
 10
120.1805828062299
 20
74.95758928571426
 30
0.0
 10
120.0435766241773
 20
74.95758928571426
 30
0.0
  0
SPLINE
  5
1AC
330
1F
100
AcDbEntity
  8
1
  6
Continuous
 62
   252
370
    18
100
AcDbSpline
210
0.0
220
0.0
230
1.0
 70
    24
 71
     3
 72
     8
 73
     4
 74
     0
 42
0.000000001
 43
0.0000000001
 40
0.0
 40
0.0
 40
0.0
 40
0.0
 40
1.0
 40
1.0
 40
1.0
 40
1.0
 10
119.6037973254025
 20
58.95758928571426
 30
0.0
 10
119.7535120814854
 20
58.95758928571426
 30
0.0
 10
119.9032268375682
 20
58.95758928571426
 30
0.0
 10
120.0529415936511
 20
58.95758928571426
 30
0.0
  0
SPLINE
  5
1AD
330
1F
100
AcDbEntity
  8
1
  6
Continuous
 62
   252
370
    18
100
AcDbSpline
210
0.0
220
0.0
230
1.0
 70
    24
 71
     3
 72
     8
 73
     4
 74
     0
 42
0.000000001
 43
0.0000000001
 40
0.0
 40
0.0
 40
0.0
 40
0.0
 40
1.0
 40
1.0
 40
1.0
 40
1.0
 10
119.1927787792447
 20
58.95758928571426
 30
0.0
 10
119.3297849612973
 20
58.95758928571426
 30
0.0
 10
119.4667911433499
 20
58.95758928571426
 30
0.0
 10
119.6037973254025
 20
58.95758928571426
 30
0.0
  0
SPLINE
  5
1AE
330
1F
100
AcDbEntity
  8
1
  6
Continuous
 62
   252
370
    18
100
AcDbSpline
210
0.0
220
0.0
230
1.0
 70
    24
 71
     3
 72
    10
 73
     6
 74
     0
 42
0.000000001
 43
0.0000000001
 40
0.0
 40
0.0
 40
0.0
 40
0.0
 40
0.728909607654972
 40
0.728909607654972
 40
1.0
 40
1.0
 40
1.0
 40
1.0
 10
118.4959688665988
 20
58.95758928571426
 30
0.0
 10
118.6328836546731
 20
58.95758928571426
 30
0.0
 10
118.7697984427474
 20
58.95758928571426
 30
0.0
 10
118.9576335139777
 20
58.95758928571426
 30
0.0
 10
119.0087163239144
 20
58.95758928571426
 30
0.0
 10
119.0597178704608
 20
58.95758928571426
 30
0.0
  0
SPLINE
  5
1AF
330
1F
100
AcDbEntity
  8
1
  6
Continuous
 62
   252
370
    18
100
AcDbSpline
210
0.0
220
0.0
230
1.0
 70
    24
 71
     3
 72
    10
 73
     6
 74
     0
 42
0.000000001
 43
0.0000000001
 40
0.0
 40
0.0
 40
0.0
 40
0.0
 40
0.728909607654972
 40
0.728909607654972
 40
1.0
 40
1.0
 40
1.0
 40
1.0
 10
121.1514050829811
 20
74.95758928571426
 30
0.0
 10
121.0144902949068
 20
74.95758928571426
 30
0.0
 10
120.8775755068324
 20
74.95758928571426
 30
0.0
 10
120.6897404356021
 20
74.95758928571426
 30
0.0
 10
120.6386576256654
 20
74.95758928571426
 30
0.0
 10
120.5876560791191
 20
74.95758928571426
 30
0.0
  0
SPLINE
  5
1B0
330
1F
100
AcDbEntity
  8
1
  6
Continuous
 62
   252
370
    18
100
AcDbSpline
210
0.0
220
0.0
230
1.0
 70
    24
 71
     3
 72
     8
 73
     4
 74
     0
 42
0.000000001
 43
0.0000000001
 40
0.0
 40
0.0
 40
0.0
 40
0.0
 40
1.0
 40
1.0
 40
1.0
 40
1.0
 10
118.0440914689288
 20
58.95758928571426
 30
0.0
 10
118.1947172681521
 20
58.95758928571426
 30
0.0
 10
118.3453430673755
 20
58.95758928571426
 30
0.0
 10
118.4959688665988
 20
58.95758928571426
 30
0.0
  0
SPLINE
  5
1B1
330
1F
100
AcDbEntity
  8
1
  6
Continuous
 62
   252
370
    18
100
AcDbSpline
210
0.0
220
0.0
230
1.0
 70
    24
 71
     3
 72
     8
 73
     4
 74
     0
 42
0.000000001
 43
0.0000000001
 40
0.0
 40
0.0
 40
0.0
 40
0.0
 40
1.0
 40
1.0
 40
1.0
 40
1.0
 10
121.603282480651
 20
74.95758928571426
 30
0.0
 10
121.4526566814277
 20
74.95758928571426
 30
0.0
 10
121.3020308822044
 20
74.95758928571426
 30
0.0
 10
121.1514050829811
 20
74.95758928571426
 30
0.0
  0
LINE
  5
1B2
330
1F
100
AcDbEntity
  8
1
  6
CENTER
 62
    30
370
    13
100
AcDbLine
 10
254.128834
 20
157.623188
 30
0.0
 11
254.128834
 21
200.357261
 31
0.0
  0
LINE
  5
1B3
330
1F
100
AcDbEntity
  8
1
  6
CENTER
 62
    30
370
    13
100
AcDbLine
 10
119.823687
 20
157.623188
 30
0.0
 11
119.823687
 21
200.357261
 31
0.0
  0
ENDSEC
  0
SECTION
  2
OBJECTS
  0
DICTIONARY
  5
C
330
0
100
AcDbDictionary
281
     1
  3
ACAD_DETAILVIEWSTYLE
350
208
  3
ACAD_GROUP
350
D
  3
ACAD_LAYOUT
350
1A
  3
ACAD_MATERIAL
350
43
  3
ACAD_MLEADERSTYLE
350
6B
  3
ACAD_MLINESTYLE
350
17
  3
ACAD_PLOTSETTINGS
350
19
  3
ACAD_PLOTSTYLENAME
350
E
  3
ACAD_SCALELIST
350
47
  3
ACAD_SECTIONVIEWSTYLE
350
209
  3
ACAD_TABLESTYLE
350
69
  3
ACAD_VISUALSTYLE
350
2A
  3
ACDB_RECOMPOSE_DATA
350
205
  3
AcDbVariableDictionary
350
1C5
  0
DICTIONARY
  5
1C3
330
8
100
AcDbDictionary
280
     1
281
     1
  3
ACAD_XREC_ROUNDTRIP
360
1C4
  0
DICTIONARY
  5
208
102
{ACAD_REACTORS
330
C
102
}
330
C
100
AcDbDictionary
281
     1
  0
DICTIONARY
  5
D
102
{ACAD_REACTORS
330
C
102
}
330
C
100
AcDbDictionary
281
     1
  0
DICTIONARY
  5
1A
102
{ACAD_REACTORS
330
C
102
}
330
C
100
AcDbDictionary
281
     1
  3
Layout1
350
1E
  3
Layout2
350
26
  3
Model
350
22
  0
DICTIONARY
  5
43
102
{ACAD_REACTORS
330
C
102
}
330
C
100
AcDbDictionary
281
     1
  3
ByBlock
350
45
  3
ByLayer
350
44
  3
Global
350
46
  0
DICTIONARY
  5
6B
102
{ACAD_REACTORS
330
C
102
}
330
C
100
AcDbDictionary
281
     1
  3
Standard
350
6C
  0
DICTIONARY
  5
17
102
{ACAD_REACTORS
330
C
102
}
330
C
100
AcDbDictionary
281
     1
  3
Standard
350
18
  0
DICTIONARY
  5
19
102
{ACAD_REACTORS
330
C
102
}
330
C
100
AcDbDictionary
281
     1
  0
ACDBDICTIONARYWDFLT
  5
E
102
{ACAD_REACTORS
330
C
102
}
330
C
100
AcDbDictionary
281
     1
  3
Normal
350
F
100
AcDbDictionaryWithDefault
340
F
  0
DICTIONARY
  5
47
102
{ACAD_REACTORS
330
C
102
}
330
C
100
AcDbDictionary
281
     1
  3
A0
350
48
  3
A1
350
49
  3
A2
350
4A
  3
A3
350
4B
  3
A4
350
4C
  3
A5
350
4D
  3
A6
350
4E
  3
A7
350
4F
  3
A8
350
50
  3
A9
350
51
  3
B0
350
52
  3
B1
350
53
  3
B2
350
54
  3
B3
350
55
  3
B4
350
56
  3
B5
350
57
  3
B6
350
58
  3
B7
350
59
  3
B8
350
5A
  3
B9
350
5B
  3
C0
350
5C
  3
C1
350
5D
  3
C2
350
5E
  3
C3
350
5F
  3
C4
350
60
  3
C5
350
61
  3
C6
350
62
  3
C7
350
63
  3
C8
350
64
  3
C9
350
65
  3
D0
350
66
  3
D1
350
67
  3
D2
350
68
  0
DICTIONARY
  5
209
102
{ACAD_REACTORS
330
C
102
}
330
C
100
AcDbDictionary
281
     1
  0
DICTIONARY
  5
69
102
{ACAD_REACTORS
330
C
102
}
330
C
100
AcDbDictionary
281
     1
  3
Standard
350
6A
  0
DICTIONARY
  5
2A
102
{ACAD_REACTORS
330
C
102
}
330
C
100
AcDbDictionary
281
     1
  3
2dWireframe
350
2F
  3
Basic
350
32
  3
Brighten
350
36
  3
ColorChange
350
3A
  3
Conceptual
350
34
  3
Dim
350
35
  3
EdgeColorOff
350
3D
  3
Facepattern
350
39
  3
Flat
350
2B
  3
FlatWithEdges
350
2C
  3
Gouraud
350
2D
  3
GouraudWithEdges
350
2E
  3
Hidden
350
31
  3
JitterOff
350
3B
  3
Linepattern
350
38
  3
OverhangOff
350
3C
  3
Realistic
350
33
  3
Shaded
350
42
  3
Shaded with edges
350
41
  3
Shades of Gray
350
3E
  3
Sketchy
350
3F
  3
Thicken
350
37
  3
Wireframe
350
30
  3
X-Ray
350
40
  0
XRECORD
  5
205
102
{ACAD_REACTORS
330
C
102
}
330
C
100
AcDbXrecord
280
     1
 90
        1
330
6A
  0
DICTIONARY
  5
1C5
102
{ACAD_REACTORS
330
C
102
}
330
C
100
AcDbDictionary
281
     1
  3
CANNOSCALE
350
1C6
  3
CMLEADERSTYLE
350
207
  3
CTABLESTYLE
350
206
  3
MSLTSCALE
350
1C7
  3
XCLIPFRAME
350
1C8
  0
XRECORD
  5
1C4
102
{ACAD_REACTORS
330
1C3
102
}
330
1C3
100
AcDbXrecord
280
     1
102
VTR_0.000_0.000_1.000_1.000_VISUALSTYLE
340
2F
102
VTR_0.000_0.000_1.000_1.000_GRIDDISPLAY
 70
     3
102
VTR_0.000_0.000_1.000_1.000_GRIDMAJOR
 70
     5
102
VTR_0.000_0.000_1.000_1.000_DEFAULTLIGHTING
280
     1
102
VTR_0.000_0.000_1.000_1.000_DEFAULTLIGHTINGTYPE
 70
     1
102
VTR_0.000_0.000_1.000_1.000_BRIGHTNESS
141
0.0
102
VTR_0.000_0.000_1.000_1.000_CONTRAST
142
0.0
102
VTR_0.000_0.000_0.500_1.000_VISUALSTYLE
340
2F
102
VTR_0.000_0.000_0.500_1.000_GRIDDISPLAY
 70
     3
102
VTR_0.000_0.000_0.500_1.000_GRIDMAJOR
 70
     5
102
VTR_0.000_0.000_0.500_1.000_DEFAULTLIGHTING
280
     1
102
VTR_0.000_0.000_0.500_1.000_DEFAULTLIGHTINGTYPE
 70
     1
102
VTR_0.000_0.000_0.500_1.000_BRIGHTNESS
141
0.0
102
VTR_0.000_0.000_0.500_1.000_CONTRAST
142
0.0
102
VTR_0.500_0.000_1.000_1.000_VISUALSTYLE
340
2F
102
VTR_0.500_0.000_1.000_1.000_GRIDDISPLAY
 70
     3
102
VTR_0.500_0.000_1.000_1.000_GRIDMAJOR
 70
     5
102
VTR_0.500_0.000_1.000_1.000_DEFAULTLIGHTING
280
     1
102
VTR_0.500_0.000_1.000_1.000_DEFAULTLIGHTINGTYPE
 70
     1
102
VTR_0.500_0.000_1.000_1.000_BRIGHTNESS
141
0.0
102
VTR_0.500_0.000_1.000_1.000_CONTRAST
142
0.0
102
VTR_0.000_0.500_1.000_1.000_VISUALSTYLE
340
2F
102
VTR_0.000_0.500_1.000_1.000_GRIDDISPLAY
 70
     3
102
VTR_0.000_0.500_1.000_1.000_GRIDMAJOR
 70
     5
102
VTR_0.000_0.500_1.000_1.000_DEFAULTLIGHTING
280
     1
102
VTR_0.000_0.500_1.000_1.000_DEFAULTLIGHTINGTYPE
 70
     1
102
VTR_0.000_0.500_1.000_1.000_BRIGHTNESS
141
0.0
102
VTR_0.000_0.500_1.000_1.000_CONTRAST
142
0.0
102
VTR_0.000_0.000_1.000_0.500_VISUALSTYLE
340
2F
102
VTR_0.000_0.000_1.000_0.500_GRIDDISPLAY
 70
     3
102
VTR_0.000_0.000_1.000_0.500_GRIDMAJOR
 70
     5
102
VTR_0.000_0.000_1.000_0.500_DEFAULTLIGHTING
280
     1
102
VTR_0.000_0.000_1.000_0.500_DEFAULTLIGHTINGTYPE
 70
     1
102
VTR_0.000_0.000_1.000_0.500_BRIGHTNESS
141
0.0
102
VTR_0.000_0.000_1.000_0.500_CONTRAST
142
0.0
102
VTR_0.000_0.500_0.500_1.000_VISUALSTYLE
340
2F
102
VTR_0.000_0.500_0.500_1.000_GRIDDISPLAY
 70
     3
102
VTR_0.000_0.500_0.500_1.000_GRIDMAJOR
 70
     5
102
VTR_0.000_0.500_0.500_1.000_DEFAULTLIGHTING
280
     1
102
VTR_0.000_0.500_0.500_1.000_DEFAULTLIGHTINGTYPE
 70
     1
102
VTR_0.000_0.500_0.500_1.000_BRIGHTNESS
141
0.0
102
VTR_0.000_0.500_0.500_1.000_CONTRAST
142
0.0
102
VTR_0.000_0.000_0.500_0.500_VISUALSTYLE
340
2F
102
VTR_0.000_0.000_0.500_0.500_GRIDDISPLAY
 70
     3
102
VTR_0.000_0.000_0.500_0.500_GRIDMAJOR
 70
     5
102
VTR_0.000_0.000_0.500_0.500_DEFAULTLIGHTING
280
     1
102
VTR_0.000_0.000_0.500_0.500_DEFAULTLIGHTINGTYPE
 70
     1
102
VTR_0.000_0.000_0.500_0.500_BRIGHTNESS
141
0.0
102
VTR_0.000_0.000_0.500_0.500_CONTRAST
142
0.0
102
VTR_0.500_0.000_1.000_0.500_VISUALSTYLE
340
2F
102
VTR_0.500_0.000_1.000_0.500_GRIDDISPLAY
 70
     3
102
VTR_0.500_0.000_1.000_0.500_GRIDMAJOR
 70
     5
102
VTR_0.500_0.000_1.000_0.500_DEFAULTLIGHTING
280
     1
102
VTR_0.500_0.000_1.000_0.500_DEFAULTLIGHTINGTYPE
 70
     1
102
VTR_0.500_0.000_1.000_0.500_BRIGHTNESS
141
0.0
102
VTR_0.500_0.000_1.000_0.500_CONTRAST
142
0.0
102
VTR_0.500_0.500_1.000_1.000_VISUALSTYLE
340
2F
102
VTR_0.500_0.500_1.000_1.000_GRIDDISPLAY
 70
     3
102
VTR_0.500_0.500_1.000_1.000_GRIDMAJOR
 70
     5
102
VTR_0.500_0.500_1.000_1.000_DEFAULTLIGHTING
280
     1
102
VTR_0.500_0.500_1.000_1.000_DEFAULTLIGHTINGTYPE
 70
     1
102
VTR_0.500_0.500_1.000_1.000_BRIGHTNESS
141
0.0
102
VTR_0.500_0.500_1.000_1.000_CONTRAST
142
0.0
102
VTR_0.000_0.500_0.333_1.000_VISUALSTYLE
340
2F
102
VTR_0.000_0.500_0.333_1.000_GRIDDISPLAY
 70
     3
102
VTR_0.000_0.500_0.333_1.000_GRIDMAJOR
 70
     5
102
VTR_0.000_0.500_0.333_1.000_DEFAULTLIGHTING
280
     1
102
VTR_0.000_0.500_0.333_1.000_DEFAULTLIGHTINGTYPE
 70
     1
102
VTR_0.000_0.500_0.333_1.000_BRIGHTNESS
141
0.0
102
VTR_0.000_0.500_0.333_1.000_CONTRAST
142
0.0
102
VTR_0.000_0.000_0.333_0.500_VISUALSTYLE
340
2F
102
VTR_0.000_0.000_0.333_0.500_GRIDDISPLAY
 70
     3
102
VTR_0.000_0.000_0.333_0.500_GRIDMAJOR
 70
     5
102
VTR_0.000_0.000_0.333_0.500_DEFAULTLIGHTING
280
     1
102
VTR_0.000_0.000_0.333_0.500_DEFAULTLIGHTINGTYPE
 70
     1
102
VTR_0.000_0.000_0.333_0.500_BRIGHTNESS
141
0.0
102
VTR_0.000_0.000_0.333_0.500_CONTRAST
142
0.0
102
VTR_0.333_0.500_0.667_1.000_VISUALSTYLE
340
2F
102
VTR_0.333_0.500_0.667_1.000_GRIDDISPLAY
 70
     3
102
VTR_0.333_0.500_0.667_1.000_GRIDMAJOR
 70
     5
102
VTR_0.333_0.500_0.667_1.000_DEFAULTLIGHTING
280
     1
102
VTR_0.333_0.500_0.667_1.000_DEFAULTLIGHTINGTYPE
 70
     1
102
VTR_0.333_0.500_0.667_1.000_BRIGHTNESS
141
0.0
102
VTR_0.333_0.500_0.667_1.000_CONTRAST
142
0.0
102
VTR_0.333_0.000_0.667_0.500_VISUALSTYLE
340
2F
102
VTR_0.333_0.000_0.667_0.500_GRIDDISPLAY
 70
     3
102
VTR_0.333_0.000_0.667_0.500_GRIDMAJOR
 70
     5
102
VTR_0.333_0.000_0.667_0.500_DEFAULTLIGHTING
280
     1
102
VTR_0.333_0.000_0.667_0.500_DEFAULTLIGHTINGTYPE
 70
     1
102
VTR_0.333_0.000_0.667_0.500_BRIGHTNESS
141
0.0
102
VTR_0.333_0.000_0.667_0.500_CONTRAST
142
0.0
102
VTR_0.667_0.500_1.000_1.000_VISUALSTYLE
340
2F
102
VTR_0.667_0.500_1.000_1.000_GRIDDISPLAY
 70
     3
102
VTR_0.667_0.500_1.000_1.000_GRIDMAJOR
 70
     5
102
VTR_0.667_0.500_1.000_1.000_DEFAULTLIGHTING
280
     1
102
VTR_0.667_0.500_1.000_1.000_DEFAULTLIGHTINGTYPE
 70
     1
102
VTR_0.667_0.500_1.000_1.000_BRIGHTNESS
141
0.0
102
VTR_0.667_0.500_1.000_1.000_CONTRAST
142
0.0
102
VTR_0.667_0.000_1.000_0.500_VISUALSTYLE
340
2F
102
VTR_0.667_0.000_1.000_0.500_GRIDDISPLAY
 70
     3
102
VTR_0.667_0.000_1.000_0.500_GRIDMAJOR
 70
     5
102
VTR_0.667_0.000_1.000_0.500_DEFAULTLIGHTING
280
     1
102
VTR_0.667_0.000_1.000_0.500_DEFAULTLIGHTINGTYPE
 70
     1
102
VTR_0.667_0.000_1.000_0.500_BRIGHTNESS
141
0.0
102
VTR_0.667_0.000_1.000_0.500_CONTRAST
142
0.0
  0
LAYOUT
  5
1E
102
{ACAD_REACTORS
330
1A
102
}
330
1A
100
AcDbPlotSettings
  1

  2
none_device
  4

  6

 40
0.0
 41
0.0
 42
0.0
 43
0.0
 44
0.0
 45
0.0
 46
0.0
 47
0.0
 48
0.0
 49
0.0
140
0.0
141
0.0
142
1.0
143
1.0
 70
   688
 72
     0
 73
     0
 74
     5
  7

 75
    16
 76
     0
 77
     2
 78
   300
147
1.0
148
0.0
149
0.0
100
AcDbLayout
  1
Layout1
 70
     1
 71
     1
 10
-0.5
 20
-0.5
 11
5.0
 21
5.0
 12
0.0
 22
0.0
 32
0.0
 14
-0.5
 24
-0.5
 34
-0.5
 15
5.0
 25
5.0
 35
5.0
146
0.0
 13
0.0
 23
0.0
 33
0.0
 16
1.0
 26
0.0
 36
0.0
 17
0.0
 27
1.0
 37
0.0
 76
     0
330
1B
  0
LAYOUT
  5
26
102
{ACAD_REACTORS
330
1A
102
}
330
1A
100
AcDbPlotSettings
  1

  2
none_device
  4

  6

 40
0.0
 41
0.0
 42
0.0
 43
0.0
 44
0.0
 45
0.0
 46
0.0
 47
0.0
 48
0.0
 49
0.0
140
0.0
141
0.0
142
1.0
143
1.0
 70
   688
 72
     0
 73
     0
 74
     5
  7

 75
    16
 76
     0
 77
     2
 78
   300
147
1.0
148
0.0
149
0.0
100
AcDbLayout
  1
Layout2
 70
     1
 71
     2
 10
0.0
 20
0.0
 11
0.0
 21
0.0
 12
0.0
 22
0.0
 32
0.0
 14
0.0
 24
0.0
 34
0.0
 15
0.0
 25
0.0
 35
0.0
146
0.0
 13
0.0
 23
0.0
 33
0.0
 16
1.0
 26
0.0
 36
0.0
 17
0.0
 27
1.0
 37
0.0
 76
     0
330
23
  0
LAYOUT
  5
22
102
{ACAD_REACTORS
330
1A
102
}
330
1A
100
AcDbPlotSettings
  1

  2
none_device
  4
Letter_(8.50_x_11.00_Inches)
  6

 40
6.35
 41
6.35
 42
6.350005
 43
6.350005
 44
215.9
 45
279.4
 46
0.0
 47
0.0
 48
0.0
 49
0.0
140
0.0
141
0.0
142
1.0
143
1.0
 70
  1712
 72
     0
 73
     0
 74
     0
  7

 75
     0
 76
     0
 77
     2
 78
   300
147
1.0
148
0.0
149
0.0
100
AcDbLayout
  1
Model
 70
     1
 71
     0
 10
-0.5
 20
-0.5
 11
5.0
 21
5.0
 12
0.0
 22
0.0
 32
0.0
 14
-0.5
 24
-0.5
 34
-0.5
 15
5.0
 25
5.0
 35
5.0
146
0.0
 13
0.0
 23
0.0
 33
0.0
 16
1.0
 26
0.0
 36
0.0
 17
0.0
 27
1.0
 37
0.0
 76
     0
330
1F
331
29
  0
MATERIAL
  5
45
102
{ACAD_REACTORS
330
43
102
}
102
{ACAD_XDICTIONARY
360
1FB
102
}
330
43
100
AcDbMaterial
  1
ByBlock
  0
MATERIAL
  5
44
102
{ACAD_REACTORS
330
43
102
}
102
{ACAD_XDICTIONARY
360
1F9
102
}
330
43
100
AcDbMaterial
  1
ByLayer
  0
MATERIAL
  5
46
102
{ACAD_REACTORS
330
43
102
}
102
{ACAD_XDICTIONARY
360
1FD
102
}
330
43
100
AcDbMaterial
  1
Global
  0
MLEADERSTYLE
  5
6C
102
{ACAD_REACTORS
330
6B
102
}
102
{ACAD_XDICTIONARY
360
203
102
}
330
6B
100
AcDbMLeaderStyle
170
     2
171
     1
172
     0
 90
        2
 40
0.0
 41
0.0
173
     1
 91
-1056964608
340
14
 92
       -2
290
     1
 42
0.09
291
     1
 43
0.36
  3
Standard
341
0
 44
0.18
300

342
11
174
     1
178
     6
175
     1
176
     0
 93
-1056964608
 45
0.18
292
     0
297
     0
 46
0.18
343
0
 94
-1056964608
 47
1.0
 49
1.0
140
1.0
293
     1
141
0.0
294
     1
177
     0
142
1.0
295
     0
296
     0
143
0.125
1001
ACAD_MLEADERVER
1070
     2
  0
MLINESTYLE
  5
18
102
{ACAD_REACTORS
330
17
102
}
330
17
100
AcDbMlineStyle
  2
Standard
 70
     0
  3

 62
   256
 51
90.0
 52
90.0
 71
     2
 49
0.5
 62
   256
  6
BYLAYER
 49
-0.5
 62
   256
  6
BYLAYER
  0
ACDBPLACEHOLDER
  5
F
102
{ACAD_REACTORS
330
E
102
}
330
E
  0
SCALE
  5
48
102
{ACAD_REACTORS
330
47
102
}
330
47
100
AcDbScale
 70
     0
300
1:1
140
1.0
141
1.0
290
     1
  0
SCALE
  5
49
102
{ACAD_REACTORS
330
47
102
}
330
47
100
AcDbScale
 70
     0
300
1:2
140
1.0
141
2.0
290
     0
  0
SCALE
  5
4A
102
{ACAD_REACTORS
330
47
102
}
330
47
100
AcDbScale
 70
     0
300
1:4
140
1.0
141
4.0
290
     0
  0
SCALE
  5
4B
102
{ACAD_REACTORS
330
47
102
}
330
47
100
AcDbScale
 70
     0
300
1:5
140
1.0
141
5.0
290
     0
  0
SCALE
  5
4C
102
{ACAD_REACTORS
330
47
102
}
330
47
100
AcDbScale
 70
     0
300
1:8
140
1.0
141
8.0
290
     0
  0
SCALE
  5
4D
102
{ACAD_REACTORS
330
47
102
}
330
47
100
AcDbScale
 70
     0
300
1:10
140
1.0
141
10.0
290
     0
  0
SCALE
  5
4E
102
{ACAD_REACTORS
330
47
102
}
330
47
100
AcDbScale
 70
     0
300
1:16
140
1.0
141
16.0
290
     0
  0
SCALE
  5
4F
102
{ACAD_REACTORS
330
47
102
}
330
47
100
AcDbScale
 70
     0
300
1:20
140
1.0
141
20.0
290
     0
  0
SCALE
  5
50
102
{ACAD_REACTORS
330
47
102
}
330
47
100
AcDbScale
 70
     0
300
1:30
140
1.0
141
30.0
290
     0
  0
SCALE
  5
51
102
{ACAD_REACTORS
330
47
102
}
330
47
100
AcDbScale
 70
     0
300
1:40
140
1.0
141
40.0
290
     0
  0
SCALE
  5
52
102
{ACAD_REACTORS
330
47
102
}
330
47
100
AcDbScale
 70
     0
300
1:50
140
1.0
141
50.0
290
     0
  0
SCALE
  5
53
102
{ACAD_REACTORS
330
47
102
}
330
47
100
AcDbScale
 70
     0
300
1:100
140
1.0
141
100.0
290
     0
  0
SCALE
  5
54
102
{ACAD_REACTORS
330
47
102
}
330
47
100
AcDbScale
 70
     0
300
2:1
140
2.0
141
1.0
290
     0
  0
SCALE
  5
55
102
{ACAD_REACTORS
330
47
102
}
330
47
100
AcDbScale
 70
     0
300
4:1
140
4.0
141
1.0
290
     0
  0
SCALE
  5
56
102
{ACAD_REACTORS
330
47
102
}
330
47
100
AcDbScale
 70
     0
300
8:1
140
8.0
141
1.0
290
     0
  0
SCALE
  5
57
102
{ACAD_REACTORS
330
47
102
}
330
47
100
AcDbScale
 70
     0
300
10:1
140
10.0
141
1.0
290
     0
  0
SCALE
  5
58
102
{ACAD_REACTORS
330
47
102
}
330
47
100
AcDbScale
 70
     0
300
100:1
140
100.0
141
1.0
290
     0
  0
SCALE
  5
59
102
{ACAD_REACTORS
330
47
102
}
330
47
100
AcDbScale
 70
     0
300
1/128" = 1'-0"
140
0.007812
141
12.0
290
     0
  0
SCALE
  5
5A
102
{ACAD_REACTORS
330
47
102
}
330
47
100
AcDbScale
 70
     0
300
1/64" = 1'-0"
140
0.015625
141
12.0
290
     0
  0
SCALE
  5
5B
102
{ACAD_REACTORS
330
47
102
}
330
47
100
AcDbScale
 70
     0
300
1/32" = 1'-0"
140
0.03125
141
12.0
290
     0
  0
SCALE
  5
5C
102
{ACAD_REACTORS
330
47
102
}
330
47
100
AcDbScale
 70
     0
300
1/16" = 1'-0"
140
0.0625
141
12.0
290
     0
  0
SCALE
  5
5D
102
{ACAD_REACTORS
330
47
102
}
330
47
100
AcDbScale
 70
     0
300
3/32" = 1'-0"
140
0.09375
141
12.0
290
     0
  0
SCALE
  5
5E
102
{ACAD_REACTORS
330
47
102
}
330
47
100
AcDbScale
 70
     0
300
1/8" = 1'-0"
140
0.125
141
12.0
290
     0
  0
SCALE
  5
5F
102
{ACAD_REACTORS
330
47
102
}
330
47
100
AcDbScale
 70
     0
300
3/16" = 1'-0"
140
0.1875
141
12.0
290
     0
  0
SCALE
  5
60
102
{ACAD_REACTORS
330
47
102
}
330
47
100
AcDbScale
 70
     0
300
1/4" = 1'-0"
140
0.25
141
12.0
290
     0
  0
SCALE
  5
61
102
{ACAD_REACTORS
330
47
102
}
330
47
100
AcDbScale
 70
     0
300
3/8" = 1'-0"
140
0.375
141
12.0
290
     0
  0
SCALE
  5
62
102
{ACAD_REACTORS
330
47
102
}
330
47
100
AcDbScale
 70
     0
300
1/2" = 1'-0"
140
0.5
141
12.0
290
     0
  0
SCALE
  5
63
102
{ACAD_REACTORS
330
47
102
}
330
47
100
AcDbScale
 70
     0
300
3/4" = 1'-0"
140
0.75
141
12.0
290
     0
  0
SCALE
  5
64
102
{ACAD_REACTORS
330
47
102
}
330
47
100
AcDbScale
 70
     0
300
1" = 1'-0"
140
1.0
141
12.0
290
     0
  0
SCALE
  5
65
102
{ACAD_REACTORS
330
47
102
}
330
47
100
AcDbScale
 70
     0
300
1-1/2" = 1'-0"
140
1.5
141
12.0
290
     0
  0
SCALE
  5
66
102
{ACAD_REACTORS
330
47
102
}
330
47
100
AcDbScale
 70
     0
300
3" = 1'-0"
140
3.0
141
12.0
290
     0
  0
SCALE
  5
67
102
{ACAD_REACTORS
330
47
102
}
330
47
100
AcDbScale
 70
     0
300
6" = 1'-0"
140
6.0
141
12.0
290
     0
  0
SCALE
  5
68
102
{ACAD_REACTORS
330
47
102
}
330
47
100
AcDbScale
 70
     0
300
1'-0" = 1'-0"
140
12.0
141
12.0
290
     0
  0
TABLESTYLE
  5
6A
102
{ACAD_REACTORS
330
69
102
}
102
{ACAD_XDICTIONARY
360
1FF
102
}
330
69
100
AcDbTableStyle
  3
Standard
 70
     0
 71
     0
 40
0.06
 41
0.06
280
     0
281
     0
  7
Standard
140
0.18
170
     2
 62
     0
 63
   257
283
     0
274
    -2
284
     1
 64
     0
275
    -2
285
     1
 65
     0
276
    -2
286
     1
 66
     0
277
    -2
287
     1
 67
     0
278
    -2
288
     1
 68
     0
279
    -2
289
     1
 69
     0
  7
Standard
140
0.25
170
     5
 62
     0
 63
   257
283
     0
274
    -2
284
     1
 64
     0
275
    -2
285
     1
 65
     0
276
    -2
286
     1
 66
     0
277
    -2
287
     1
 67
     0
278
    -2
288
     1
 68
     0
279
    -2
289
     1
 69
     0
  7
Standard
140
0.18
170
     5
 62
     0
 63
   257
283
     0
274
    -2
284
     1
 64
     0
275
    -2
285
     1
 65
     0
276
    -2
286
     1
 66
     0
277
    -2
287
     1
 67
     0
278
    -2
288
     1
 68
     0
279
    -2
289
     1
 69
     0
  0
VISUALSTYLE
  5
2F
102
{ACAD_REACTORS
330
2A
102
}
102
{ACAD_XDICTIONARY
360
1D1
102
}
330
2A
100
AcDbVisualStyle
  2
2dWireframe
 70
     4
 71
     0
 72
     2
 73
     0
 90
        0
 40
0.6
 41
30.0
 62
     5
 63
     7
421
 16777215
 74
     1
 91
        4
 64
     7
 65
   257
 75
     1
175
     1
 42
1.0
 92
        0
 66
   257
 43
1.0
 76
     1
 77
     6
 78
     2
 67
     7
 79
     5
170
     0
171
     0
290
     0
174
     0
 93
        1
 44
0.0
173
     0
291
     0
 45
0.0
1001
ACAD
1000
AcDbSavedByObjectVersion
1070
     0
  0
VISUALSTYLE
  5
32
102
{ACAD_REACTORS
330
2A
102
}
102
{ACAD_XDICTIONARY
360
1D7
102
}
330
2A
100
AcDbVisualStyle
  2
Basic
 70
     7
 71
     1
 72
     0
 73
     1
 90
        0
 40
0.6
 41
30.0
 62
     5
 63
     7
421
 16777215
 74
     0
 91
        4
 64
     7
 65
   257
 75
     1
175
     1
 42
1.0
 92
        8
 66
     7
 43
1.0
 76
     1
 77
     6
 78
     2
 67
     7
 79
     5
170
     0
171
     0
290
     0
174
     0
 93
        1
 44
0.0
173
     0
291
     1
 45
0.0
1001
ACAD
1000
AcDbSavedByObjectVersion
1070
     0
  0
VISUALSTYLE
  5
36
102
{ACAD_REACTORS
330
2A
102
}
102
{ACAD_XDICTIONARY
360
1DF
102
}
330
2A
100
AcDbVisualStyle
  2
Brighten
 70
    12
 71
     2
 72
     2
 73
     0
 90
        0
 40
0.6
 41
30.0
 62
     5
 63
     7
421
 16777215
 74
     1
 91
        4
 64
     7
 65
   257
 75
     1
175
     1
 42
1.0
 92
        8
 66
     7
 43
1.0
 76
     1
 77
     6
 78
     2
 67
     7
 79
     5
170
     0
171
     0
290
     0
174
     0
 93
        1
 44
50.0
173
     0
291
     1
 45
0.0
1001
ACAD
1000
AcDbSavedByObjectVersion
1070
     0
  0
VISUALSTYLE
  5
3A
102
{ACAD_REACTORS
330
2A
102
}
102
{ACAD_XDICTIONARY
360
1E7
102
}
330
2A
100
AcDbVisualStyle
  2
ColorChange
 70
    16
 71
     2
 72
     2
 73
     3
 90
        0
 40
0.6
 41
30.0
 62
     5
 63
     8
421
  8421504
 74
     1
 91
        4
 64
     7
 65
   257
 75
     1
175
     1
 42
1.0
 92
        8
 66
     8
424
  8421504
 43
1.0
 76
     1
 77
     6
 78
     2
 67
     7
 79
     5
170
     0
171
     0
290
     0
174
     0
 93
        1
 44
0.0
173
     0
291
     1
 45
0.0
1001
ACAD
1000
AcDbSavedByObjectVersion
1070
     0
  0
VISUALSTYLE
  5
34
102
{ACAD_REACTORS
330
2A
102
}
102
{ACAD_XDICTIONARY
360
1DB
102
}
330
2A
100
AcDbVisualStyle
  2
Conceptual
 70
     9
 71
     3
 72
     2
 73
     0
 90
        0
 40
0.6
 41
30.0
 62
     5
 63
     7
421
 16777215
 74
     2
 91
        2
 64
     7
 65
   257
 75
     1
175
     1
 42
179.0
 92
        8
 66
     7
 43
1.0
 76
     1
 77
     6
 78
     2
 67
     7
 79
     3
170
     0
171
     0
290
     0
174
     0
 93
        1
 44
0.0
173
     0
291
     0
 45
0.0
1001
ACAD
1000
AcDbSavedByObjectVersion
1070
     0
  0
VISUALSTYLE
  5
35
102
{ACAD_REACTORS
330
2A
102
}
102
{ACAD_XDICTIONARY
360
1DD
102
}
330
2A
100
AcDbVisualStyle
  2
Dim
 70
    11
 71
     2
 72
     2
 73
     0
 90
        0
 40
0.6
 41
30.0
 62
     5
 63
     7
421
 16777215
 74
     1
 91
        4
 64
     7
 65
   257
 75
     1
175
     1
 42
1.0
 92
        8
 66
     7
 43
1.0
 76
     1
 77
     6
 78
     2
 67
     7
 79
     5
170
     0
171
     0
290
     0
174
     0
 93
        1
 44
-50.0
173
     0
291
     1
 45
0.0
1001
ACAD
1000
AcDbSavedByObjectVersion
1070
     0
  0
VISUALSTYLE
  5
3D
102
{ACAD_REACTORS
330
2A
102
}
102
{ACAD_XDICTIONARY
360
1ED
102
}
330
2A
100
AcDbVisualStyle
  2
EdgeColorOff
 70
    22
 71
     2
 72
     2
 73
     0
 90
        0
 40
0.6
 41
30.0
 62
     5
 63
     7
421
 16777215
 74
     1
 91
        4
 64
     7
 65
   257
 75
     1
175
     1
 42
1.0
 92
        8
 66
     7
 43
1.0
 76
     1
 77
     6
 78
     2
 67
     7
 79
     5
170
     0
171
     0
290
     0
174
     0
 93
        1
 44
0.0
173
     0
291
     1
 45
0.0
1001
ACAD
1000
AcDbSavedByObjectVersion
1070
     0
  0
VISUALSTYLE
  5
39
102
{ACAD_REACTORS
330
2A
102
}
102
{ACAD_XDICTIONARY
360
1E5
102
}
330
2A
100
AcDbVisualStyle
  2
Facepattern
 70
    15
 71
     2
 72
     2
 73
     0
 90
        0
 40
0.6
 41
30.0
 62
     5
 63
     7
421
 16777215
 74
     1
 91
        4
 64
     7
 65
   257
 75
     1
175
     1
 42
1.0
 92
        8
 66
     7
 43
1.0
 76
     1
 77
     6
 78
     2
 67
     7
 79
     5
170
     0
171
     0
290
     0
174
     0
 93
        1
 44
0.0
173
     0
291
     1
 45
0.0
1001
ACAD
1000
AcDbSavedByObjectVersion
1070
     0
  0
VISUALSTYLE
  5
2B
102
{ACAD_REACTORS
330
2A
102
}
102
{ACAD_XDICTIONARY
360
1C9
102
}
330
2A
100
AcDbVisualStyle
  2
Flat
 70
     0
 71
     2
 72
     1
 73
     1
 90
        2
 40
0.6
 41
30.0
 62
     5
 63
     7
421
 16777215
 74
     0
 91
        0
 64
     7
 65
   257
 75
     1
175
     1
 42
1.0
 92
        8
 66
     7
 43
1.0
 76
     1
 77
     6
 78
     2
 67
     7
 79
     5
170
     0
171
     0
290
     0
174
     0
 93
       13
 44
0.0
173
     0
291
     1
 45
0.0
1001
ACAD
1000
AcDbSavedByObjectVersion
1070
     0
  0
VISUALSTYLE
  5
2C
102
{ACAD_REACTORS
330
2A
102
}
102
{ACAD_XDICTIONARY
360
1CB
102
}
330
2A
100
AcDbVisualStyle
  2
FlatWithEdges
 70
     1
 71
     2
 72
     1
 73
     1
 90
        2
 40
0.6
 41
30.0
 62
     5
 63
     7
421
 16777215
 74
     1
 91
        0
 64
     7
 65
   257
 75
     1
175
     1
 42
1.0
 92
        0
 66
   257
 43
1.0
 76
     1
 77
     6
 78
     2
 67
     7
 79
     5
170
     0
171
     0
290
     0
174
     0
 93
       13
 44
0.0
173
     0
291
     1
 45
0.0
1001
ACAD
1000
AcDbSavedByObjectVersion
1070
     0
  0
VISUALSTYLE
  5
2D
102
{ACAD_REACTORS
330
2A
102
}
102
{ACAD_XDICTIONARY
360
1CD
102
}
330
2A
100
AcDbVisualStyle
  2
Gouraud
 70
     2
 71
     2
 72
     2
 73
     1
 90
        2
 40
0.6
 41
30.0
 62
     5
 63
     7
421
 16777215
 74
     0
 91
        0
 64
     7
 65
   257
 75
     1
175
     1
 42
1.0
 92
        0
 66
     7
 43
1.0
 76
     1
 77
     6
 78
     2
 67
     7
 79
     5
170
     0
171
     0
290
     0
174
     0
 93
       13
 44
0.0
173
     0
291
     1
 45
0.0
1001
ACAD
1000
AcDbSavedByObjectVersion
1070
     0
  0
VISUALSTYLE
  5
2E
102
{ACAD_REACTORS
330
2A
102
}
102
{ACAD_XDICTIONARY
360
1CF
102
}
330
2A
100
AcDbVisualStyle
  2
GouraudWithEdges
 70
     3
 71
     2
 72
     2
 73
     1
 90
        2
 40
0.6
 41
30.0
 62
     5
 63
     7
421
 16777215
 74
     1
 91
        0
 64
     7
 65
   257
 75
     1
175
     1
 42
1.0
 92
        0
 66
   257
 43
1.0
 76
     1
 77
     6
 78
     2
 67
     7
 79
     5
170
     0
171
     0
290
     0
174
     0
 93
       13
 44
0.0
173
     0
291
     1
 45
0.0
1001
ACAD
1000
AcDbSavedByObjectVersion
1070
     0
  0
VISUALSTYLE
  5
31
102
{ACAD_REACTORS
330
2A
102
}
102
{ACAD_XDICTIONARY
360
1D5
102
}
330
2A
100
AcDbVisualStyle
  2
Hidden
 70
     6
 71
     1
 72
     2
 73
     2
 90
        0
 40
0.6
 41
30.0
 62
     5
 63
     7
421
 16777215
 74
     2
 91
        2
 64
     7
 65
   257
 75
     2
175
     1
 42
40.0
 92
        0
 66
   257
 43
1.0
 76
     1
 77
     6
 78
     2
 67
     7
 79
     3
170
     0
171
     0
290
     0
174
     0
 93
        1
 44
0.0
173
     0
291
     0
 45
0.0
1001
ACAD
1000
AcDbSavedByObjectVersion
1070
     0
  0
VISUALSTYLE
  5
3B
102
{ACAD_REACTORS
330
2A
102
}
102
{ACAD_XDICTIONARY
360
1E9
102
}
330
2A
100
AcDbVisualStyle
  2
JitterOff
 70
    20
 71
     2
 72
     2
 73
     0
 90
        0
 40
0.6
 41
30.0
 62
     5
 63
     7
421
 16777215
 74
     1
 91
        4
 64
     7
 65
   257
 75
     1
175
     1
 42
1.0
 92
       10
 66
     7
 43
1.0
 76
     1
 77
     6
 78
     2
 67
     7
 79
     5
170
     0
171
     0
290
     0
174
     0
 93
        1
 44
0.0
173
     0
291
     1
 45
0.0
1001
ACAD
1000
AcDbSavedByObjectVersion
1070
     0
  0
VISUALSTYLE
  5
38
102
{ACAD_REACTORS
330
2A
102
}
102
{ACAD_XDICTIONARY
360
1E3
102
}
330
2A
100
AcDbVisualStyle
  2
Linepattern
 70
    14
 71
     2
 72
     2
 73
     0
 90
        0
 40
0.6
 41
30.0
 62
     5
 63
     7
421
 16777215
 74
     1
 91
        4
 64
     7
 65
   257
 75
     7
175
     7
 42
1.0
 92
        8
 66
     7
 43
1.0
 76
     1
 77
     6
 78
     2
 67
     7
 79
     5
170
     0
171
     0
290
     0
174
     0
 93
        1
 44
0.0
173
     0
291
     1
 45
0.0
1001
ACAD
1000
AcDbSavedByObjectVersion
1070
     0
  0
VISUALSTYLE
  5
3C
102
{ACAD_REACTORS
330
2A
102
}
102
{ACAD_XDICTIONARY
360
1EB
102
}
330
2A
100
AcDbVisualStyle
  2
OverhangOff
 70
    21
 71
     2
 72
     2
 73
     0
 90
        0
 40
0.6
 41
30.0
 62
     5
 63
     7
421
 16777215
 74
     1
 91
        4
 64
     7
 65
   257
 75
     1
175
     1
 42
1.0
 92
        9
 66
     7
 43
1.0
 76
     1
 77
     6
 78
     2
 67
     7
 79
     5
170
     0
171
     0
290
     0
174
     0
 93
        1
 44
0.0
173
     0
291
     1
 45
0.0
1001
ACAD
1000
AcDbSavedByObjectVersion
1070
     0
  0
VISUALSTYLE
  5
33
102
{ACAD_REACTORS
330
2A
102
}
102
{ACAD_XDICTIONARY
360
1D9
102
}
330
2A
100
AcDbVisualStyle
  2
Realistic
 70
     8
 71
     2
 72
     3
 73
     0
 90
        2
 40
0.6
 41
30.0
 62
     5
 63
     7
421
 16777215
 74
     0
 91
        0
 64
     7
 65
   257
 75
     1
175
     1
 42
1.0
 92
        8
 66
   257
 43
1.0
 76
     1
 77
     6
 78
     2
 67
     7
 79
     3
170
     0
171
     0
290
     0
174
     0
 93
       13
 44
0.0
173
     0
291
     0
 45
0.0
1001
ACAD
1000
AcDbSavedByObjectVersion
1070
     0
  0
VISUALSTYLE
  5
42
102
{ACAD_REACTORS
330
2A
102
}
102
{ACAD_XDICTIONARY
360
1F7
102
}
330
2A
100
AcDbVisualStyle
  2
Shaded
 70
    27
 71
     2
 72
     2
 73
     1
 90
        2
 40
0.6
 41
30.0
 62
     5
 63
     7
421
 16777215
 74
     0
 91
        4
 64
     7
 65
   257
 75
     1
175
     1
 42
1.0
 92
        8
 66
   257
 43
1.0
 76
     1
 77
     6
 78
     2
 67
     8
425
  7895160
 79
     3
170
     0
171
     0
290
     0
174
     0
 93
        5
 44
0.0
173
     0
291
     0
 45
0.0
1001
ACAD
1000
AcDbSavedByObjectVersion
1070
     0
  0
VISUALSTYLE
  5
41
102
{ACAD_REACTORS
330
2A
102
}
102
{ACAD_XDICTIONARY
360
1F5
102
}
330
2A
100
AcDbVisualStyle
  2
Shaded with edges
 70
    26
 71
     2
 72
     2
 73
     1
 90
        2
 40
0.6
 41
30.0
 62
     5
 63
     7
421
 16777215
 74
     1
 91
       10
 64
     7
 65
   257
 75
     2
175
     1
 42
1.0
 92
        8
 66
   257
 43
1.0
 76
     1
 77
     6
 78
     2
 67
     7
 79
     3
170
     0
171
     0
290
     0
174
     0
 93
        5
 44
0.0
173
     0
291
     0
 45
0.0
1001
ACAD
1000
AcDbSavedByObjectVersion
1070
     0
  0
VISUALSTYLE
  5
3E
102
{ACAD_REACTORS
330
2A
102
}
102
{ACAD_XDICTIONARY
360
1EF
102
}
330
2A
100
AcDbVisualStyle
  2
Shades of Gray
 70
    23
 71
     2
 72
     2
 73
     3
 90
        0
 40
0.6
 41
30.0
 62
     5
 63
     7
421
 16777215
 74
     2
 91
        2
 64
     7
 65
     7
 75
     1
175
     1
 42
40.0
 92
        8
 66
     7
 43
1.0
 76
     1
 77
     6
 78
     2
 67
     7
 79
     3
170
     0
171
     0
290
     0
174
     0
 93
        1
 44
0.0
173
     0
291
     0
 45
0.0
1001
ACAD
1000
AcDbSavedByObjectVersion
1070
     0
  0
VISUALSTYLE
  5
3F
102
{ACAD_REACTORS
330
2A
102
}
102
{ACAD_XDICTIONARY
360
1F1
102
}
330
2A
100
AcDbVisualStyle
  2
Sketchy
 70
    24
 71
     1
 72
     2
 73
     2
 90
        0
 40
0.6
 41
30.0
 62
     5
 63
     7
421
 16777215
 74
     2
 91
        2
 64
     7
 65
     7
 75
     1
175
     1
 42
40.0
 92
       11
 66
     7
 43
1.0
 76
     1
 77
     6
 78
     2
 67
     7
 79
     6
170
     0
171
     0
290
     0
174
     0
 93
        1
 44
0.0
173
     0
291
     0
 45
0.0
1001
ACAD
1000
AcDbSavedByObjectVersion
1070
     0
  0
VISUALSTYLE
  5
37
102
{ACAD_REACTORS
330
2A
102
}
102
{ACAD_XDICTIONARY
360
1E1
102
}
330
2A
100
AcDbVisualStyle
  2
Thicken
 70
    13
 71
     2
 72
     2
 73
     0
 90
        0
 40
0.6
 41
30.0
 62
     5
 63
     7
421
 16777215
 74
     1
 91
        4
 64
     7
 65
   257
 75
     1
175
     1
 42
1.0
 92
       12
 66
     7
 43
1.0
 76
     1
 77
     6
 78
     2
 67
     7
 79
     5
170
     0
171
     0
290
     0
174
     0
 93
        1
 44
0.0
173
     0
291
     1
 45
0.0
1001
ACAD
1000
AcDbSavedByObjectVersion
1070
     0
  0
VISUALSTYLE
  5
30
102
{ACAD_REACTORS
330
2A
102
}
102
{ACAD_XDICTIONARY
360
1D3
102
}
330
2A
100
AcDbVisualStyle
  2
Wireframe
 70
     5
 71
     0
 72
     2
 73
     0
 90
        0
 40
0.6
 41
30.0
 62
     5
 63
     7
421
 16777215
 74
     1
 91
        4
 64
     7
 65
   257
 75
     1
175
     1
 42
1.0
 92
        0
 66
   257
 43
1.0
 76
     1
 77
     6
 78
     2
 67
     7
 79
     3
170
     0
171
     0
290
     0
174
     0
 93
        1
 44
0.0
173
     0
291
     0
 45
0.0
1001
ACAD
1000
AcDbSavedByObjectVersion
1070
     0
  0
VISUALSTYLE
  5
40
102
{ACAD_REACTORS
330
2A
102
}
102
{ACAD_XDICTIONARY
360
1F3
102
}
330
2A
100
AcDbVisualStyle
  2
X-Ray
 70
    25
 71
     2
 72
     2
 73
     1
 90
        1
 40
0.5
 41
30.0
 62
     5
 63
     7
421
 16777215
 74
     1
 91
        0
 64
     7
 65
   257
 75
     1
175
     1
 42
1.0
 92
        8
 66
     7
 43
1.0
 76
     1
 77
     6
 78
     2
 67
     7
 79
     3
170
     0
171
     0
290
     0
174
     0
 93
       13
 44
0.0
173
     0
291
     0
 45
0.0
1001
ACAD
1000
AcDbSavedByObjectVersion
1070
     0
  0
DICTIONARYVAR
  5
1C6
102
{ACAD_REACTORS
330
1C5
102
}
330
1C5
100
DictionaryVariables
280
     0
  1
1:1
  0
DICTIONARYVAR
  5
207
102
{ACAD_REACTORS
330
1C5
102
}
330
1C5
100
DictionaryVariables
280
     0
  1
Standard
  0
DICTIONARYVAR
  5
206
102
{ACAD_REACTORS
330
1C5
102
}
330
1C5
100
DictionaryVariables
280
     0
  1
Standard
  0
DICTIONARYVAR
  5
1C7
102
{ACAD_REACTORS
330
1C5
102
}
330
1C5
100
DictionaryVariables
280
     0
  1
1
  0
DICTIONARYVAR
  5
1C8
102
{ACAD_REACTORS
330
1C5
102
}
330
1C5
100
DictionaryVariables
280
     0
  1
2
  0
DICTIONARY
  5
1FB
330
45
100
AcDbDictionary
280
     1
281
     1
  3
ACAD_XREC_ROUNDTRIP
360
1FC
  0
DICTIONARY
  5
1F9
330
44
100
AcDbDictionary
280
     1
281
     1
  3
ACAD_XREC_ROUNDTRIP
360
1FA
  0
DICTIONARY
  5
1FD
330
46
100
AcDbDictionary
280
     1
281
     1
  3
ACAD_XREC_ROUNDTRIP
360
1FE
  0
DICTIONARY
  5
203
330
6C
100
AcDbDictionary
280
     1
281
     1
  3
ACAD_XREC_ROUNDTRIP
360
204
  0
DICTIONARY
  5
1FF
330
6A
100
AcDbDictionary
280
     1
281
     1
  3
ACAD_ROUNDTRIP_2008_TABLESTYLE_CELLSTYLEMAP
360
201
  3
ACAD_XREC_ROUNDTRIP
360
200
  0
DICTIONARY
  5
1D1
330
2F
100
AcDbDictionary
280
     1
281
     1
  3
ACAD_XREC_ROUNDTRIP
360
1D2
  0
DICTIONARY
  5
1D7
330
32
100
AcDbDictionary
280
     1
281
     1
  3
ACAD_XREC_ROUNDTRIP
360
1D8
  0
DICTIONARY
  5
1DF
330
36
100
AcDbDictionary
280
     1
281
     1
  3
ACAD_XREC_ROUNDTRIP
360
1E0
  0
DICTIONARY
  5
1E7
330
3A
100
AcDbDictionary
280
     1
281
     1
  3
ACAD_XREC_ROUNDTRIP
360
1E8
  0
DICTIONARY
  5
1DB
330
34
100
AcDbDictionary
280
     1
281
     1
  3
ACAD_XREC_ROUNDTRIP
360
1DC
  0
DICTIONARY
  5
1DD
330
35
100
AcDbDictionary
280
     1
281
     1
  3
ACAD_XREC_ROUNDTRIP
360
1DE
  0
DICTIONARY
  5
1ED
330
3D
100
AcDbDictionary
280
     1
281
     1
  3
ACAD_XREC_ROUNDTRIP
360
1EE
  0
DICTIONARY
  5
1E5
330
39
100
AcDbDictionary
280
     1
281
     1
  3
ACAD_XREC_ROUNDTRIP
360
1E6
  0
DICTIONARY
  5
1C9
330
2B
100
AcDbDictionary
280
     1
281
     1
  3
ACAD_XREC_ROUNDTRIP
360
1CA
  0
DICTIONARY
  5
1CB
330
2C
100
AcDbDictionary
280
     1
281
     1
  3
ACAD_XREC_ROUNDTRIP
360
1CC
  0
DICTIONARY
  5
1CD
330
2D
100
AcDbDictionary
280
     1
281
     1
  3
ACAD_XREC_ROUNDTRIP
360
1CE
  0
DICTIONARY
  5
1CF
330
2E
100
AcDbDictionary
280
     1
281
     1
  3
ACAD_XREC_ROUNDTRIP
360
1D0
  0
DICTIONARY
  5
1D5
330
31
100
AcDbDictionary
280
     1
281
     1
  3
ACAD_XREC_ROUNDTRIP
360
1D6
  0
DICTIONARY
  5
1E9
330
3B
100
AcDbDictionary
280
     1
281
     1
  3
ACAD_XREC_ROUNDTRIP
360
1EA
  0
DICTIONARY
  5
1E3
330
38
100
AcDbDictionary
280
     1
281
     1
  3
ACAD_XREC_ROUNDTRIP
360
1E4
  0
DICTIONARY
  5
1EB
330
3C
100
AcDbDictionary
280
     1
281
     1
  3
ACAD_XREC_ROUNDTRIP
360
1EC
  0
DICTIONARY
  5
1D9
330
33
100
AcDbDictionary
280
     1
281
     1
  3
ACAD_XREC_ROUNDTRIP
360
1DA
  0
DICTIONARY
  5
1F7
330
42
100
AcDbDictionary
280
     1
281
     1
  3
ACAD_XREC_ROUNDTRIP
360
1F8
  0
DICTIONARY
  5
1F5
330
41
100
AcDbDictionary
280
     1
281
     1
  3
ACAD_XREC_ROUNDTRIP
360
1F6
  0
DICTIONARY
  5
1EF
330
3E
100
AcDbDictionary
280
     1
281
     1
  3
ACAD_XREC_ROUNDTRIP
360
1F0
  0
DICTIONARY
  5
1F1
330
3F
100
AcDbDictionary
280
     1
281
     1
  3
ACAD_XREC_ROUNDTRIP
360
1F2
  0
DICTIONARY
  5
1E1
330
37
100
AcDbDictionary
280
     1
281
     1
  3
ACAD_XREC_ROUNDTRIP
360
1E2
  0
DICTIONARY
  5
1D3
330
30
100
AcDbDictionary
280
     1
281
     1
  3
ACAD_XREC_ROUNDTRIP
360
1D4
  0
DICTIONARY
  5
1F3
330
40
100
AcDbDictionary
280
     1
281
     1
  3
ACAD_XREC_ROUNDTRIP
360
1F4
  0
XRECORD
  5
1FC
102
{ACAD_REACTORS
330
1FB
102
}
330
1FB
100
AcDbXrecord
280
     1
102
MATERIAL
148
0.0
149
0.0
149
0.0
 93
        0
 94
      127
282
     0
 72
     1
 77
     1
171
     1
175
     1
179
     1
273
     0
  0
XRECORD
  5
1FA
102
{ACAD_REACTORS
330
1F9
102
}
330
1F9
100
AcDbXrecord
280
     1
102
MATERIAL
148
0.0
149
0.0
149
0.0
 93
        0
 94
      127
282
     0
 72
     1
 77
     1
171
     1
175
     1
179
     1
273
     0
  0
XRECORD
  5
1FE
102
{ACAD_REACTORS
330
1FD
102
}
330
1FD
100
AcDbXrecord
280
     1
102
MATERIAL
148
0.0
149
0.0
149
0.0
 93
        0
 94
      127
282
     0
 72
     1
 77
     1
171
     1
175
     1
179
     1
273
     0
  0
XRECORD
  5
204
102
{ACAD_REACTORS
330
203
102
}
330
203
100
AcDbXrecord
280
     1
102
ACAD_ROUNDTRIP_2010_MLEADER_STYLE
  0
CELLSTYLEMAP
  5
201
102
{ACAD_REACTORS
330
1FF
102
}
330
1FF
100
AcDbCellStyleMap
 90
        3
300
CELLSTYLE
  1
TABLEFORMAT_BEGIN
 90
        5
170
     1
 91
        0
 92
    32768
 62
   257
 93
        1
300
CONTENTFORMAT
  1
CONTENTFORMAT_BEGIN
 90
        0
 91
        0
 92
        4
 93
        0
300

 40
0.0
140
1.0
 94
        5
 62
     0
340
11
144
0.25
309
CONTENTFORMAT_END
171
     1
301
MARGIN
  1
CELLMARGIN_BEGIN
 40
0.06
 40
0.06
 40
0.06
 40
0.06
 40
0.06
 40
0.06
309
CELLMARGIN_END
 94
        6
 95
        1
302
GRIDFORMAT
  1
GRIDFORMAT_BEGIN
 90
        0
 91
        1
 62
     0
 92
       -2
340
14
 93
        0
 40
0.045
309
GRIDFORMAT_END
 95
        2
302
GRIDFORMAT
  1
GRIDFORMAT_BEGIN
 90
        0
 91
        1
 62
     0
 92
       -2
340
14
 93
        0
 40
0.045
309
GRIDFORMAT_END
 95
        4
302
GRIDFORMAT
  1
GRIDFORMAT_BEGIN
 90
        0
 91
        1
 62
     0
 92
       -2
340
14
 93
        0
 40
0.045
309
GRIDFORMAT_END
 95
        8
302
GRIDFORMAT
  1
GRIDFORMAT_BEGIN
 90
        0
 91
        1
 62
     0
 92
       -2
340
14
 93
        0
 40
0.045
309
GRIDFORMAT_END
 95
       16
302
GRIDFORMAT
  1
GRIDFORMAT_BEGIN
 90
        0
 91
        1
 62
     0
 92
       -2
340
14
 93
        0
 40
0.045
309
GRIDFORMAT_END
 95
       32
302
GRIDFORMAT
  1
GRIDFORMAT_BEGIN
 90
        0
 91
        1
 62
     0
 92
       -2
340
14
 93
        0
 40
0.045
309
GRIDFORMAT_END
309
TABLEFORMAT_END
  1
CELLSTYLE_BEGIN
 90
        1
 91
        1
300
_TITLE
309
CELLSTYLE_END
300
CELLSTYLE
  1
TABLEFORMAT_BEGIN
 90
        5
170
     1
 91
        0
 92
        0
 62
   257
 93
        1
300
CONTENTFORMAT
  1
CONTENTFORMAT_BEGIN
 90
        0
 91
        0
 92
        4
 93
        0
300

 40
0.0
140
1.0
 94
        5
 62
     0
340
11
144
0.18
309
CONTENTFORMAT_END
171
     1
301
MARGIN
  1
CELLMARGIN_BEGIN
 40
0.06
 40
0.06
 40
0.06
 40
0.06
 40
0.06
 40
0.06
309
CELLMARGIN_END
 94
        6
 95
        1
302
GRIDFORMAT
  1
GRIDFORMAT_BEGIN
 90
        0
 91
        1
 62
     0
 92
       -2
340
14
 93
        0
 40
0.045
309
GRIDFORMAT_END
 95
        2
302
GRIDFORMAT
  1
GRIDFORMAT_BEGIN
 90
        0
 91
        1
 62
     0
 92
       -2
340
14
 93
        0
 40
0.045
309
GRIDFORMAT_END
 95
        4
302
GRIDFORMAT
  1
GRIDFORMAT_BEGIN
 90
        0
 91
        1
 62
     0
 92
       -2
340
14
 93
        0
 40
0.045
309
GRIDFORMAT_END
 95
        8
302
GRIDFORMAT
  1
GRIDFORMAT_BEGIN
 90
        0
 91
        1
 62
     0
 92
       -2
340
14
 93
        0
 40
0.045
309
GRIDFORMAT_END
 95
       16
302
GRIDFORMAT
  1
GRIDFORMAT_BEGIN
 90
        0
 91
        1
 62
     0
 92
       -2
340
14
 93
        0
 40
0.045
309
GRIDFORMAT_END
 95
       32
302
GRIDFORMAT
  1
GRIDFORMAT_BEGIN
 90
        0
 91
        1
 62
     0
 92
       -2
340
14
 93
        0
 40
0.045
309
GRIDFORMAT_END
309
TABLEFORMAT_END
  1
CELLSTYLE_BEGIN
 90
        2
 91
        1
300
_HEADER
309
CELLSTYLE_END
300
CELLSTYLE
  1
TABLEFORMAT_BEGIN
 90
        5
170
     1
 91
        0
 92
        0
 62
   257
 93
        1
300
CONTENTFORMAT
  1
CONTENTFORMAT_BEGIN
 90
        0
 91
        0
 92
        4
 93
        0
300

 40
0.0
140
1.0
 94
        2
 62
     0
340
11
144
0.18
309
CONTENTFORMAT_END
171
     1
301
MARGIN
  1
CELLMARGIN_BEGIN
 40
0.06
 40
0.06
 40
0.06
 40
0.06
 40
0.06
 40
0.06
309
CELLMARGIN_END
 94
        6
 95
        1
302
GRIDFORMAT
  1
GRIDFORMAT_BEGIN
 90
        0
 91
        1
 62
     0
 92
       -2
340
14
 93
        0
 40
0.045
309
GRIDFORMAT_END
 95
        2
302
GRIDFORMAT
  1
GRIDFORMAT_BEGIN
 90
        0
 91
        1
 62
     0
 92
       -2
340
14
 93
        0
 40
0.045
309
GRIDFORMAT_END
 95
        4
302
GRIDFORMAT
  1
GRIDFORMAT_BEGIN
 90
        0
 91
        1
 62
     0
 92
       -2
340
14
 93
        0
 40
0.045
309
GRIDFORMAT_END
 95
        8
302
GRIDFORMAT
  1
GRIDFORMAT_BEGIN
 90
        0
 91
        1
 62
     0
 92
       -2
340
14
 93
        0
 40
0.045
309
GRIDFORMAT_END
 95
       16
302
GRIDFORMAT
  1
GRIDFORMAT_BEGIN
 90
        0
 91
        1
 62
     0
 92
       -2
340
14
 93
        0
 40
0.045
309
GRIDFORMAT_END
 95
       32
302
GRIDFORMAT
  1
GRIDFORMAT_BEGIN
 90
        0
 91
        1
 62
     0
 92
       -2
340
14
 93
        0
 40
0.045
309
GRIDFORMAT_END
309
TABLEFORMAT_END
  1
CELLSTYLE_BEGIN
 90
        3
 91
        2
300
_DATA
309
CELLSTYLE_END
  0
XRECORD
  5
200
102
{ACAD_REACTORS
330
1FF
102
}
330
1FF
100
AcDbXrecord
280
     1
102
ACAD_ROUNDTRIP_PRE2007_TABLESTYLE
 90
        4
 91
        0
  1

 92
        4
 93
        0
  2

 94
        4
 95
        0
  3

  0
XRECORD
  5
1D2
102
{ACAD_REACTORS
330
1D1
102
}
330
1D1
100
AcDbXrecord
280
     1
102
RTVSPropertyOp0
 70
     1
102
RTVSPropertyOp1
 70
     1
102
RTVSPropertyOp2
 70
     1
102
RTVSPropertyOp3
 70
     1
102
RTVSPropertyOp4
 70
     1
102
RTVSPropertyOp5
 70
     1
102
RTVSPropertyOp6
 70
     1
102
RTVSPropertyOp7
 70
     1
102
RTVSPropertyOp8
 70
     1
102
RTVSPropertyOp9
 70
     1
102
RTVSPropertyOp10
 70
     1
102
RTVSPropertyOp11
 70
     1
102
RTVSPropertyOp12
 70
     1
102
RTVSPropertyOp13
 70
     1
102
RTVSPropertyOp14
 70
     1
102
RTVSPropertyOp15
 70
     1
102
RTVSPropertyOp16
 70
     1
102
RTVSPropertyOp17
 70
     1
102
RTVSPropertyOp18
 70
     1
102
RTVSPropertyOp19
 70
     1
102
RTVSPropertyOp20
 70
     1
102
RTVSPropertyOp21
 70
     1
102
RTVSPropertyOp22
 70
     1
102
RTVSPropertyOp23
 70
     1
102
RTVSPropertyOp24
 70
     1
102
RTVSPropertyOp25
 70
     1
102
RTVSPropertyOp26
 70
     1
102
RTVSPropertyOp27
 70
     1
102
RTVSPropertyOp28
 70
     1
102
RTVSPropertyOp29
 70
     1
102
RTVSPropertyOp30
 70
     1
102
RTVSPropertyOp31
 70
     1
102
RTVSPropertyOp32
 70
     1
102
RTVSPropertyOp33
 70
     1
102
RTVSPropertyOp34
 70
     1
102
RTVSPropertyOp35
 70
     1
102
RTVSPropertyOp36
 70
     1
102
RTVSPropertyOp37
 70
     1
102
RTVSPropertyOp38
 70
     1
102
RTVSPropertyOp39
 70
     1
102
RTVSPropertyOp40
 70
     1
102
RTVSPropertyOp41
 70
     1
102
RTVSPropertyOp42
 70
     1
102
RTVSPropertyOp43
 70
     1
102
RTVSPropertyOp44
 70
     1
102
RTVSPropertyOp45
 70
     1
102
RTVSPropertyOp46
 70
     1
102
RTVSPropertyOp47
 70
     1
102
RTVSPropertyOp48
 70
     1
102
RTVSPropertyOp49
 70
     1
102
RTVSPropertyOp50
 70
     1
102
RTVSPropertyOp51
 70
     0
102
RTVSPropertyOp52
 70
     0
102
RTVSPropertyOp53
 70
     1
102
RTVSPropertyOp54
 70
     1
102
RTVSPropertyOp55
 70
     1
102
RTVSPropertyOp56
 70
     1
102
RTVSPropertyOp57
 70
     1
102
RTVSPost2010Prop28
280
     1
102
RTVSPost2010PropOp28
 70
     1
102
RTVSPost2010Prop29
280
     1
102
RTVSPost2010PropOp29
 70
     1
102
RTVSPost2010Prop30
280
     0
102
RTVSPost2010PropOp30
 70
     1
102
RTVSPost2010Prop31
280
     0
102
RTVSPost2010PropOp31
 70
     1
102
RTVSPost2010Prop32
280
     0
102
RTVSPost2010PropOp32
 70
     1
102
RTVSPost2010Prop33
280
     0
102
RTVSPost2010PropOp33
 70
     1
102
RTVSPost2010Prop34
280
     0
102
RTVSPost2010PropOp34
 70
     1
102
RTVSPost2010Prop35
280
     0
102
RTVSPost2010PropOp35
 70
     1
102
RTVSPost2010Prop36
280
     0
102
RTVSPost2010PropOp36
 70
     1
102
RTVSPost2010Prop37
 90
       50
102
RTVSPost2010PropOp37
 70
     1
102
RTVSPost2010Prop38
140
0.0
102
RTVSPost2010PropOp38
 70
     1
102
RTVSPost2010Prop39
140
1.0
102
RTVSPost2010PropOp39
 70
     1
102
RTVSPost2010Prop40
 90
        0
102
RTVSPost2010PropOp40
 70
     1
102
RTVSPost2010Prop41ColorIndex
 90
       18
102
RTVSPost2010Prop41ColorRGB
 90
        0
102
RTVSPost2010PropOp41
 70
     1
102
RTVSPost2010Prop42
 90
       50
102
RTVSPost2010PropOp42
 70
     1
102
RTVSPost2010Prop43
 90
        3
102
RTVSPost2010PropOp43
 70
     1
102
RTVSPost2010Prop44ColorIndex
 90
        5
102
RTVSPost2010Prop44ColorRGB
 90
      255
102
RTVSPost2010PropOp44
 70
     1
102
RTVSPost2010Prop45
280
     0
102
RTVSPost2010PropOp45
 70
     1
102
RTVSPost2010Prop46
 90
       50
102
RTVSPost2010PropOp46
 70
     1
102
RTVSPost2010Prop47
 90
       50
102
RTVSPost2010PropOp47
 70
     1
102
RTVSPost2010Prop48
 90
       50
102
RTVSPost2010PropOp48
 70
     1
102
RTVSPost2010Prop49
280
     0
102
RTVSPost2010PropOp49
 70
     1
102
RTVSPost2010Prop50
 90
       50
102
RTVSPost2010PropOp50
 70
     1
102
RTVSPost2010Prop51ColorIndex
 90
      256
102
RTVSPost2010Prop51ColorRGB
 90
-16777216
102
RTVSPost2010PropOp51
 70
     0
102
RTVSPost2010Prop52
140
1.0
102
RTVSPost2010PropOp52
 70
     0
102
RTVSPost2010Prop53
 90
        2
102
RTVSPost2010PropOp53
 70
     1
102
RTVSPost2010Prop54
  1
strokes_ogs.tif
102
RTVSPost2010PropOp54
 70
     1
102
RTVSPost2010Prop55
280
     0
102
RTVSPost2010PropOp55
 70
     1
102
RTVSPost2010Prop56
140
1.0
102
RTVSPost2010PropOp56
 70
     1
102
RTVSPost2010Prop57
140
1.0
102
RTVSPost2010PropOp57
 70
     1
  0
XRECORD
  5
1D8
102
{ACAD_REACTORS
330
1D7
102
}
330
1D7
100
AcDbXrecord
280
     1
102
RTVSPropertyOp0
 70
     1
102
RTVSPropertyOp1
 70
     1
102
RTVSPropertyOp2
 70
     1
102
RTVSPropertyOp3
 70
     1
102
RTVSPropertyOp4
 70
     1
102
RTVSPropertyOp5
 70
     1
102
RTVSPropertyOp6
 70
     1
102
RTVSPropertyOp7
 70
     1
102
RTVSPropertyOp8
 70
     1
102
RTVSPropertyOp9
 70
     1
102
RTVSPropertyOp10
 70
     1
102
RTVSPropertyOp11
 70
     1
102
RTVSPropertyOp12
 70
     1
102
RTVSPropertyOp13
 70
     1
102
RTVSPropertyOp14
 70
     1
102
RTVSPropertyOp15
 70
     1
102
RTVSPropertyOp16
 70
     1
102
RTVSPropertyOp17
 70
     1
102
RTVSPropertyOp18
 70
     1
102
RTVSPropertyOp19
 70
     1
102
RTVSPropertyOp20
 70
     1
102
RTVSPropertyOp21
 70
     1
102
RTVSPropertyOp22
 70
     1
102
RTVSPropertyOp23
 70
     1
102
RTVSPropertyOp24
 70
     1
102
RTVSPropertyOp25
 70
     1
102
RTVSPropertyOp26
 70
     1
102
RTVSPropertyOp27
 70
     1
102
RTVSPropertyOp28
 70
     1
102
RTVSPropertyOp29
 70
     1
102
RTVSPropertyOp30
 70
     1
102
RTVSPropertyOp31
 70
     1
102
RTVSPropertyOp32
 70
     1
102
RTVSPropertyOp33
 70
     1
102
RTVSPropertyOp34
 70
     1
102
RTVSPropertyOp35
 70
     1
102
RTVSPropertyOp36
 70
     1
102
RTVSPropertyOp37
 70
     1
102
RTVSPropertyOp38
 70
     1
102
RTVSPropertyOp39
 70
     1
102
RTVSPropertyOp40
 70
     1
102
RTVSPropertyOp41
 70
     1
102
RTVSPropertyOp42
 70
     1
102
RTVSPropertyOp43
 70
     1
102
RTVSPropertyOp44
 70
     1
102
RTVSPropertyOp45
 70
     1
102
RTVSPropertyOp46
 70
     1
102
RTVSPropertyOp47
 70
     1
102
RTVSPropertyOp48
 70
     1
102
RTVSPropertyOp49
 70
     1
102
RTVSPropertyOp50
 70
     1
102
RTVSPropertyOp51
 70
     0
102
RTVSPropertyOp52
 70
     0
102
RTVSPropertyOp53
 70
     1
102
RTVSPropertyOp54
 70
     1
102
RTVSPropertyOp55
 70
     1
102
RTVSPropertyOp56
 70
     1
102
RTVSPropertyOp57
 70
     1
102
RTVSPost2010Prop28
280
     0
102
RTVSPost2010PropOp28
 70
     1
102
RTVSPost2010Prop29
280
     1
102
RTVSPost2010PropOp29
 70
     1
102
RTVSPost2010Prop30
280
     1
102
RTVSPost2010PropOp30
 70
     1
102
RTVSPost2010Prop31
280
     0
102
RTVSPost2010PropOp31
 70
     1
102
RTVSPost2010Prop32
280
     0
102
RTVSPost2010PropOp32
 70
     1
102
RTVSPost2010Prop33
280
     0
102
RTVSPost2010PropOp33
 70
     1
102
RTVSPost2010Prop34
280
     0
102
RTVSPost2010PropOp34
 70
     1
102
RTVSPost2010Prop35
280
     0
102
RTVSPost2010PropOp35
 70
     1
102
RTVSPost2010Prop36
280
     0
102
RTVSPost2010PropOp36
 70
     1
102
RTVSPost2010Prop37
 90
       50
102
RTVSPost2010PropOp37
 70
     1
102
RTVSPost2010Prop38
140
0.0
102
RTVSPost2010PropOp38
 70
     1
102
RTVSPost2010Prop39
140
1.0
102
RTVSPost2010PropOp39
 70
     1
102
RTVSPost2010Prop40
 90
        0
102
RTVSPost2010PropOp40
 70
     1
102
RTVSPost2010Prop41ColorIndex
 90
       18
102
RTVSPost2010Prop41ColorRGB
 90
        0
102
RTVSPost2010PropOp41
 70
     1
102
RTVSPost2010Prop42
 90
       50
102
RTVSPost2010PropOp42
 70
     1
102
RTVSPost2010Prop43
 90
        3
102
RTVSPost2010PropOp43
 70
     1
102
RTVSPost2010Prop44ColorIndex
 90
        5
102
RTVSPost2010Prop44ColorRGB
 90
      255
102
RTVSPost2010PropOp44
 70
     1
102
RTVSPost2010Prop45
280
     0
102
RTVSPost2010PropOp45
 70
     1
102
RTVSPost2010Prop46
 90
       50
102
RTVSPost2010PropOp46
 70
     1
102
RTVSPost2010Prop47
 90
       50
102
RTVSPost2010PropOp47
 70
     1
102
RTVSPost2010Prop48
 90
       50
102
RTVSPost2010PropOp48
 70
     1
102
RTVSPost2010Prop49
280
     0
102
RTVSPost2010PropOp49
 70
     1
102
RTVSPost2010Prop50
 90
       50
102
RTVSPost2010PropOp50
 70
     1
102
RTVSPost2010Prop51ColorIndex
 90
      256
102
RTVSPost2010Prop51ColorRGB
 90
-16777216
102
RTVSPost2010PropOp51
 70
     0
102
RTVSPost2010Prop52
140
1.0
102
RTVSPost2010PropOp52
 70
     0
102
RTVSPost2010Prop53
 90
        2
102
RTVSPost2010PropOp53
 70
     1
102
RTVSPost2010Prop54
  1
strokes_ogs.tif
102
RTVSPost2010PropOp54
 70
     1
102
RTVSPost2010Prop55
280
     0
102
RTVSPost2010PropOp55
 70
     1
102
RTVSPost2010Prop56
140
1.0
102
RTVSPost2010PropOp56
 70
     1
102
RTVSPost2010Prop57
140
1.0
102
RTVSPost2010PropOp57
 70
     1
  0
XRECORD
  5
1E0
102
{ACAD_REACTORS
330
1DF
102
}
330
1DF
100
AcDbXrecord
280
     1
102
RTVSPropertyOp0
 70
     1
102
RTVSPropertyOp1
 70
     1
102
RTVSPropertyOp2
 70
     1
102
RTVSPropertyOp3
 70
     1
102
RTVSPropertyOp4
 70
     1
102
RTVSPropertyOp5
 70
     1
102
RTVSPropertyOp6
 70
     1
102
RTVSPropertyOp7
 70
     1
102
RTVSPropertyOp8
 70
     1
102
RTVSPropertyOp9
 70
     1
102
RTVSPropertyOp10
 70
     1
102
RTVSPropertyOp11
 70
     1
102
RTVSPropertyOp12
 70
     1
102
RTVSPropertyOp13
 70
     1
102
RTVSPropertyOp14
 70
     1
102
RTVSPropertyOp15
 70
     1
102
RTVSPropertyOp16
 70
     1
102
RTVSPropertyOp17
 70
     1
102
RTVSPropertyOp18
 70
     1
102
RTVSPropertyOp19
 70
     1
102
RTVSPropertyOp20
 70
     1
102
RTVSPropertyOp21
 70
     1
102
RTVSPropertyOp22
 70
     1
102
RTVSPropertyOp23
 70
     1
102
RTVSPropertyOp24
 70
     1
102
RTVSPropertyOp25
 70
     1
102
RTVSPropertyOp26
 70
     1
102
RTVSPropertyOp27
 70
     1
102
RTVSPropertyOp28
 70
     1
102
RTVSPropertyOp29
 70
     1
102
RTVSPropertyOp30
 70
     1
102
RTVSPropertyOp31
 70
     1
102
RTVSPropertyOp32
 70
     1
102
RTVSPropertyOp33
 70
     1
102
RTVSPropertyOp34
 70
     1
102
RTVSPropertyOp35
 70
     1
102
RTVSPropertyOp36
 70
     1
102
RTVSPropertyOp37
 70
     1
102
RTVSPropertyOp38
 70
     1
102
RTVSPropertyOp39
 70
     1
102
RTVSPropertyOp40
 70
     1
102
RTVSPropertyOp41
 70
     1
102
RTVSPropertyOp42
 70
     1
102
RTVSPropertyOp43
 70
     1
102
RTVSPropertyOp44
 70
     1
102
RTVSPropertyOp45
 70
     1
102
RTVSPropertyOp46
 70
     1
102
RTVSPropertyOp47
 70
     1
102
RTVSPropertyOp48
 70
     1
102
RTVSPropertyOp49
 70
     1
102
RTVSPropertyOp50
 70
     1
102
RTVSPropertyOp51
 70
     0
102
RTVSPropertyOp52
 70
     0
102
RTVSPropertyOp53
 70
     1
102
RTVSPropertyOp54
 70
     1
102
RTVSPropertyOp55
 70
     1
102
RTVSPropertyOp56
 70
     1
102
RTVSPropertyOp57
 70
     1
102
RTVSPost2010Prop28
280
     0
102
RTVSPost2010PropOp28
 70
     1
102
RTVSPost2010Prop29
280
     1
102
RTVSPost2010PropOp29
 70
     1
102
RTVSPost2010Prop30
280
     1
102
RTVSPost2010PropOp30
 70
     1
102
RTVSPost2010Prop31
280
     0
102
RTVSPost2010PropOp31
 70
     1
102
RTVSPost2010Prop32
280
     0
102
RTVSPost2010PropOp32
 70
     1
102
RTVSPost2010Prop33
280
     0
102
RTVSPost2010PropOp33
 70
     1
102
RTVSPost2010Prop34
280
     0
102
RTVSPost2010PropOp34
 70
     1
102
RTVSPost2010Prop35
280
     0
102
RTVSPost2010PropOp35
 70
     1
102
RTVSPost2010Prop36
280
     0
102
RTVSPost2010PropOp36
 70
     1
102
RTVSPost2010Prop37
 90
       50
102
RTVSPost2010PropOp37
 70
     1
102
RTVSPost2010Prop38
140
0.0
102
RTVSPost2010PropOp38
 70
     1
102
RTVSPost2010Prop39
140
1.0
102
RTVSPost2010PropOp39
 70
     1
102
RTVSPost2010Prop40
 90
        0
102
RTVSPost2010PropOp40
 70
     1
102
RTVSPost2010Prop41ColorIndex
 90
       18
102
RTVSPost2010Prop41ColorRGB
 90
        0
102
RTVSPost2010PropOp41
 70
     1
102
RTVSPost2010Prop42
 90
       50
102
RTVSPost2010PropOp42
 70
     1
102
RTVSPost2010Prop43
 90
        3
102
RTVSPost2010PropOp43
 70
     1
102
RTVSPost2010Prop44ColorIndex
 90
        5
102
RTVSPost2010Prop44ColorRGB
 90
      255
102
RTVSPost2010PropOp44
 70
     1
102
RTVSPost2010Prop45
280
     0
102
RTVSPost2010PropOp45
 70
     1
102
RTVSPost2010Prop46
 90
       50
102
RTVSPost2010PropOp46
 70
     1
102
RTVSPost2010Prop47
 90
       50
102
RTVSPost2010PropOp47
 70
     1
102
RTVSPost2010Prop48
 90
       50
102
RTVSPost2010PropOp48
 70
     1
102
RTVSPost2010Prop49
280
     0
102
RTVSPost2010PropOp49
 70
     1
102
RTVSPost2010Prop50
 90
       50
102
RTVSPost2010PropOp50
 70
     1
102
RTVSPost2010Prop51ColorIndex
 90
      256
102
RTVSPost2010Prop51ColorRGB
 90
-16777216
102
RTVSPost2010PropOp51
 70
     0
102
RTVSPost2010Prop52
140
1.0
102
RTVSPost2010PropOp52
 70
     0
102
RTVSPost2010Prop53
 90
        2
102
RTVSPost2010PropOp53
 70
     1
102
RTVSPost2010Prop54
  1
strokes_ogs.tif
102
RTVSPost2010PropOp54
 70
     1
102
RTVSPost2010Prop55
280
     0
102
RTVSPost2010PropOp55
 70
     1
102
RTVSPost2010Prop56
140
1.0
102
RTVSPost2010PropOp56
 70
     1
102
RTVSPost2010Prop57
140
1.0
102
RTVSPost2010PropOp57
 70
     1
  0
XRECORD
  5
1E8
102
{ACAD_REACTORS
330
1E7
102
}
330
1E7
100
AcDbXrecord
280
     1
102
RTVSPropertyOp0
 70
     1
102
RTVSPropertyOp1
 70
     1
102
RTVSPropertyOp2
 70
     1
102
RTVSPropertyOp3
 70
     1
102
RTVSPropertyOp4
 70
     1
102
RTVSPropertyOp5
 70
     1
102
RTVSPropertyOp6
 70
     1
102
RTVSPropertyOp7
 70
     1
102
RTVSPropertyOp8
 70
     1
102
RTVSPropertyOp9
 70
     1
102
RTVSPropertyOp10
 70
     1
102
RTVSPropertyOp11
 70
     1
102
RTVSPropertyOp12
 70
     1
102
RTVSPropertyOp13
 70
     1
102
RTVSPropertyOp14
 70
     1
102
RTVSPropertyOp15
 70
     1
102
RTVSPropertyOp16
 70
     1
102
RTVSPropertyOp17
 70
     1
102
RTVSPropertyOp18
 70
     1
102
RTVSPropertyOp19
 70
     1
102
RTVSPropertyOp20
 70
     1
102
RTVSPropertyOp21
 70
     1
102
RTVSPropertyOp22
 70
     1
102
RTVSPropertyOp23
 70
     1
102
RTVSPropertyOp24
 70
     1
102
RTVSPropertyOp25
 70
     1
102
RTVSPropertyOp26
 70
     1
102
RTVSPropertyOp27
 70
     1
102
RTVSPropertyOp28
 70
     1
102
RTVSPropertyOp29
 70
     1
102
RTVSPropertyOp30
 70
     1
102
RTVSPropertyOp31
 70
     1
102
RTVSPropertyOp32
 70
     1
102
RTVSPropertyOp33
 70
     1
102
RTVSPropertyOp34
 70
     1
102
RTVSPropertyOp35
 70
     1
102
RTVSPropertyOp36
 70
     1
102
RTVSPropertyOp37
 70
     1
102
RTVSPropertyOp38
 70
     1
102
RTVSPropertyOp39
 70
     1
102
RTVSPropertyOp40
 70
     1
102
RTVSPropertyOp41
 70
     1
102
RTVSPropertyOp42
 70
     1
102
RTVSPropertyOp43
 70
     1
102
RTVSPropertyOp44
 70
     1
102
RTVSPropertyOp45
 70
     1
102
RTVSPropertyOp46
 70
     1
102
RTVSPropertyOp47
 70
     1
102
RTVSPropertyOp48
 70
     1
102
RTVSPropertyOp49
 70
     1
102
RTVSPropertyOp50
 70
     1
102
RTVSPropertyOp51
 70
     0
102
RTVSPropertyOp52
 70
     0
102
RTVSPropertyOp53
 70
     1
102
RTVSPropertyOp54
 70
     1
102
RTVSPropertyOp55
 70
     1
102
RTVSPropertyOp56
 70
     1
102
RTVSPropertyOp57
 70
     1
102
RTVSPost2010Prop28
280
     0
102
RTVSPost2010PropOp28
 70
     1
102
RTVSPost2010Prop29
280
     1
102
RTVSPost2010PropOp29
 70
     1
102
RTVSPost2010Prop30
280
     1
102
RTVSPost2010PropOp30
 70
     1
102
RTVSPost2010Prop31
280
     0
102
RTVSPost2010PropOp31
 70
     1
102
RTVSPost2010Prop32
280
     0
102
RTVSPost2010PropOp32
 70
     1
102
RTVSPost2010Prop33
280
     0
102
RTVSPost2010PropOp33
 70
     1
102
RTVSPost2010Prop34
280
     0
102
RTVSPost2010PropOp34
 70
     1
102
RTVSPost2010Prop35
280
     0
102
RTVSPost2010PropOp35
 70
     1
102
RTVSPost2010Prop36
280
     0
102
RTVSPost2010PropOp36
 70
     1
102
RTVSPost2010Prop37
 90
       50
102
RTVSPost2010PropOp37
 70
     1
102
RTVSPost2010Prop38
140
0.0
102
RTVSPost2010PropOp38
 70
     1
102
RTVSPost2010Prop39
140
1.0
102
RTVSPost2010PropOp39
 70
     1
102
RTVSPost2010Prop40
 90
        0
102
RTVSPost2010PropOp40
 70
     1
102
RTVSPost2010Prop41ColorIndex
 90
       18
102
RTVSPost2010Prop41ColorRGB
 90
        0
102
RTVSPost2010PropOp41
 70
     1
102
RTVSPost2010Prop42
 90
       50
102
RTVSPost2010PropOp42
 70
     1
102
RTVSPost2010Prop43
 90
        3
102
RTVSPost2010PropOp43
 70
     1
102
RTVSPost2010Prop44ColorIndex
 90
        5
102
RTVSPost2010Prop44ColorRGB
 90
      255
102
RTVSPost2010PropOp44
 70
     1
102
RTVSPost2010Prop45
280
     0
102
RTVSPost2010PropOp45
 70
     1
102
RTVSPost2010Prop46
 90
       50
102
RTVSPost2010PropOp46
 70
     1
102
RTVSPost2010Prop47
 90
       50
102
RTVSPost2010PropOp47
 70
     1
102
RTVSPost2010Prop48
 90
       50
102
RTVSPost2010PropOp48
 70
     1
102
RTVSPost2010Prop49
280
     0
102
RTVSPost2010PropOp49
 70
     1
102
RTVSPost2010Prop50
 90
       50
102
RTVSPost2010PropOp50
 70
     1
102
RTVSPost2010Prop51ColorIndex
 90
      256
102
RTVSPost2010Prop51ColorRGB
 90
-16777216
102
RTVSPost2010PropOp51
 70
     0
102
RTVSPost2010Prop52
140
1.0
102
RTVSPost2010PropOp52
 70
     0
102
RTVSPost2010Prop53
 90
        2
102
RTVSPost2010PropOp53
 70
     1
102
RTVSPost2010Prop54
  1
strokes_ogs.tif
102
RTVSPost2010PropOp54
 70
     1
102
RTVSPost2010Prop55
280
     0
102
RTVSPost2010PropOp55
 70
     1
102
RTVSPost2010Prop56
140
1.0
102
RTVSPost2010PropOp56
 70
     1
102
RTVSPost2010Prop57
140
1.0
102
RTVSPost2010PropOp57
 70
     1
  0
XRECORD
  5
1DC
102
{ACAD_REACTORS
330
1DB
102
}
330
1DB
100
AcDbXrecord
280
     1
102
RTVSPropertyOp0
 70
     1
102
RTVSPropertyOp1
 70
     1
102
RTVSPropertyOp2
 70
     1
102
RTVSPropertyOp3
 70
     1
102
RTVSPropertyOp4
 70
     1
102
RTVSPropertyOp5
 70
     1
102
RTVSPropertyOp6
 70
     1
102
RTVSPropertyOp7
 70
     1
102
RTVSPropertyOp8
 70
     1
102
RTVSPropertyOp9
 70
     1
102
RTVSPropertyOp10
 70
     1
102
RTVSPropertyOp11
 70
     1
102
RTVSPropertyOp12
 70
     1
102
RTVSPropertyOp13
 70
     1
102
RTVSPropertyOp14
 70
     1
102
RTVSPropertyOp15
 70
     1
102
RTVSPropertyOp16
 70
     1
102
RTVSPropertyOp17
 70
     1
102
RTVSPropertyOp18
 70
     1
102
RTVSPropertyOp19
 70
     1
102
RTVSPropertyOp20
 70
     1
102
RTVSPropertyOp21
 70
     1
102
RTVSPropertyOp22
 70
     1
102
RTVSPropertyOp23
 70
     1
102
RTVSPropertyOp24
 70
     1
102
RTVSPropertyOp25
 70
     1
102
RTVSPropertyOp26
 70
     1
102
RTVSPropertyOp27
 70
     1
102
RTVSPropertyOp28
 70
     1
102
RTVSPropertyOp29
 70
     1
102
RTVSPropertyOp30
 70
     1
102
RTVSPropertyOp31
 70
     1
102
RTVSPropertyOp32
 70
     1
102
RTVSPropertyOp33
 70
     1
102
RTVSPropertyOp34
 70
     1
102
RTVSPropertyOp35
 70
     1
102
RTVSPropertyOp36
 70
     1
102
RTVSPropertyOp37
 70
     1
102
RTVSPropertyOp38
 70
     1
102
RTVSPropertyOp39
 70
     1
102
RTVSPropertyOp40
 70
     1
102
RTVSPropertyOp41
 70
     1
102
RTVSPropertyOp42
 70
     1
102
RTVSPropertyOp43
 70
     1
102
RTVSPropertyOp44
 70
     1
102
RTVSPropertyOp45
 70
     1
102
RTVSPropertyOp46
 70
     1
102
RTVSPropertyOp47
 70
     1
102
RTVSPropertyOp48
 70
     1
102
RTVSPropertyOp49
 70
     1
102
RTVSPropertyOp50
 70
     1
102
RTVSPropertyOp51
 70
     0
102
RTVSPropertyOp52
 70
     0
102
RTVSPropertyOp53
 70
     1
102
RTVSPropertyOp54
 70
     1
102
RTVSPropertyOp55
 70
     1
102
RTVSPropertyOp56
 70
     1
102
RTVSPropertyOp57
 70
     1
102
RTVSPost2010Prop28
280
     0
102
RTVSPost2010PropOp28
 70
     1
102
RTVSPost2010Prop29
280
     1
102
RTVSPost2010PropOp29
 70
     1
102
RTVSPost2010Prop30
280
     1
102
RTVSPost2010PropOp30
 70
     1
102
RTVSPost2010Prop31
280
     0
102
RTVSPost2010PropOp31
 70
     1
102
RTVSPost2010Prop32
280
     0
102
RTVSPost2010PropOp32
 70
     1
102
RTVSPost2010Prop33
280
     0
102
RTVSPost2010PropOp33
 70
     1
102
RTVSPost2010Prop34
280
     0
102
RTVSPost2010PropOp34
 70
     1
102
RTVSPost2010Prop35
280
     0
102
RTVSPost2010PropOp35
 70
     1
102
RTVSPost2010Prop36
280
     0
102
RTVSPost2010PropOp36
 70
     1
102
RTVSPost2010Prop37
 90
       50
102
RTVSPost2010PropOp37
 70
     1
102
RTVSPost2010Prop38
140
0.0
102
RTVSPost2010PropOp38
 70
     1
102
RTVSPost2010Prop39
140
1.0
102
RTVSPost2010PropOp39
 70
     1
102
RTVSPost2010Prop40
 90
        0
102
RTVSPost2010PropOp40
 70
     1
102
RTVSPost2010Prop41ColorIndex
 90
       18
102
RTVSPost2010Prop41ColorRGB
 90
        0
102
RTVSPost2010PropOp41
 70
     1
102
RTVSPost2010Prop42
 90
       50
102
RTVSPost2010PropOp42
 70
     1
102
RTVSPost2010Prop43
 90
        3
102
RTVSPost2010PropOp43
 70
     1
102
RTVSPost2010Prop44ColorIndex
 90
        5
102
RTVSPost2010Prop44ColorRGB
 90
      255
102
RTVSPost2010PropOp44
 70
     1
102
RTVSPost2010Prop45
280
     0
102
RTVSPost2010PropOp45
 70
     1
102
RTVSPost2010Prop46
 90
       50
102
RTVSPost2010PropOp46
 70
     1
102
RTVSPost2010Prop47
 90
       50
102
RTVSPost2010PropOp47
 70
     1
102
RTVSPost2010Prop48
 90
       50
102
RTVSPost2010PropOp48
 70
     1
102
RTVSPost2010Prop49
280
     0
102
RTVSPost2010PropOp49
 70
     1
102
RTVSPost2010Prop50
 90
       50
102
RTVSPost2010PropOp50
 70
     1
102
RTVSPost2010Prop51ColorIndex
 90
      256
102
RTVSPost2010Prop51ColorRGB
 90
-16777216
102
RTVSPost2010PropOp51
 70
     0
102
RTVSPost2010Prop52
140
1.0
102
RTVSPost2010PropOp52
 70
     0
102
RTVSPost2010Prop53
 90
        2
102
RTVSPost2010PropOp53
 70
     1
102
RTVSPost2010Prop54
  1
strokes_ogs.tif
102
RTVSPost2010PropOp54
 70
     1
102
RTVSPost2010Prop55
280
     0
102
RTVSPost2010PropOp55
 70
     1
102
RTVSPost2010Prop56
140
1.0
102
RTVSPost2010PropOp56
 70
     1
102
RTVSPost2010Prop57
140
1.0
102
RTVSPost2010PropOp57
 70
     1
  0
XRECORD
  5
1DE
102
{ACAD_REACTORS
330
1DD
102
}
330
1DD
100
AcDbXrecord
280
     1
102
RTVSPropertyOp0
 70
     1
102
RTVSPropertyOp1
 70
     1
102
RTVSPropertyOp2
 70
     1
102
RTVSPropertyOp3
 70
     1
102
RTVSPropertyOp4
 70
     1
102
RTVSPropertyOp5
 70
     1
102
RTVSPropertyOp6
 70
     1
102
RTVSPropertyOp7
 70
     1
102
RTVSPropertyOp8
 70
     1
102
RTVSPropertyOp9
 70
     1
102
RTVSPropertyOp10
 70
     1
102
RTVSPropertyOp11
 70
     1
102
RTVSPropertyOp12
 70
     1
102
RTVSPropertyOp13
 70
     1
102
RTVSPropertyOp14
 70
     1
102
RTVSPropertyOp15
 70
     1
102
RTVSPropertyOp16
 70
     1
102
RTVSPropertyOp17
 70
     1
102
RTVSPropertyOp18
 70
     1
102
RTVSPropertyOp19
 70
     1
102
RTVSPropertyOp20
 70
     1
102
RTVSPropertyOp21
 70
     1
102
RTVSPropertyOp22
 70
     1
102
RTVSPropertyOp23
 70
     1
102
RTVSPropertyOp24
 70
     1
102
RTVSPropertyOp25
 70
     1
102
RTVSPropertyOp26
 70
     1
102
RTVSPropertyOp27
 70
     1
102
RTVSPropertyOp28
 70
     1
102
RTVSPropertyOp29
 70
     1
102
RTVSPropertyOp30
 70
     1
102
RTVSPropertyOp31
 70
     1
102
RTVSPropertyOp32
 70
     1
102
RTVSPropertyOp33
 70
     1
102
RTVSPropertyOp34
 70
     1
102
RTVSPropertyOp35
 70
     1
102
RTVSPropertyOp36
 70
     1
102
RTVSPropertyOp37
 70
     1
102
RTVSPropertyOp38
 70
     1
102
RTVSPropertyOp39
 70
     1
102
RTVSPropertyOp40
 70
     1
102
RTVSPropertyOp41
 70
     1
102
RTVSPropertyOp42
 70
     1
102
RTVSPropertyOp43
 70
     1
102
RTVSPropertyOp44
 70
     1
102
RTVSPropertyOp45
 70
     1
102
RTVSPropertyOp46
 70
     1
102
RTVSPropertyOp47
 70
     1
102
RTVSPropertyOp48
 70
     1
102
RTVSPropertyOp49
 70
     1
102
RTVSPropertyOp50
 70
     1
102
RTVSPropertyOp51
 70
     0
102
RTVSPropertyOp52
 70
     0
102
RTVSPropertyOp53
 70
     1
102
RTVSPropertyOp54
 70
     1
102
RTVSPropertyOp55
 70
     1
102
RTVSPropertyOp56
 70
     1
102
RTVSPropertyOp57
 70
     1
102
RTVSPost2010Prop28
280
     0
102
RTVSPost2010PropOp28
 70
     1
102
RTVSPost2010Prop29
280
     1
102
RTVSPost2010PropOp29
 70
     1
102
RTVSPost2010Prop30
280
     1
102
RTVSPost2010PropOp30
 70
     1
102
RTVSPost2010Prop31
280
     0
102
RTVSPost2010PropOp31
 70
     1
102
RTVSPost2010Prop32
280
     0
102
RTVSPost2010PropOp32
 70
     1
102
RTVSPost2010Prop33
280
     0
102
RTVSPost2010PropOp33
 70
     1
102
RTVSPost2010Prop34
280
     0
102
RTVSPost2010PropOp34
 70
     1
102
RTVSPost2010Prop35
280
     0
102
RTVSPost2010PropOp35
 70
     1
102
RTVSPost2010Prop36
280
     0
102
RTVSPost2010PropOp36
 70
     1
102
RTVSPost2010Prop37
 90
       50
102
RTVSPost2010PropOp37
 70
     1
102
RTVSPost2010Prop38
140
0.0
102
RTVSPost2010PropOp38
 70
     1
102
RTVSPost2010Prop39
140
1.0
102
RTVSPost2010PropOp39
 70
     1
102
RTVSPost2010Prop40
 90
        0
102
RTVSPost2010PropOp40
 70
     1
102
RTVSPost2010Prop41ColorIndex
 90
       18
102
RTVSPost2010Prop41ColorRGB
 90
        0
102
RTVSPost2010PropOp41
 70
     1
102
RTVSPost2010Prop42
 90
       50
102
RTVSPost2010PropOp42
 70
     1
102
RTVSPost2010Prop43
 90
        3
102
RTVSPost2010PropOp43
 70
     1
102
RTVSPost2010Prop44ColorIndex
 90
        5
102
RTVSPost2010Prop44ColorRGB
 90
      255
102
RTVSPost2010PropOp44
 70
     1
102
RTVSPost2010Prop45
280
     0
102
RTVSPost2010PropOp45
 70
     1
102
RTVSPost2010Prop46
 90
       50
102
RTVSPost2010PropOp46
 70
     1
102
RTVSPost2010Prop47
 90
       50
102
RTVSPost2010PropOp47
 70
     1
102
RTVSPost2010Prop48
 90
       50
102
RTVSPost2010PropOp48
 70
     1
102
RTVSPost2010Prop49
280
     0
102
RTVSPost2010PropOp49
 70
     1
102
RTVSPost2010Prop50
 90
       50
102
RTVSPost2010PropOp50
 70
     1
102
RTVSPost2010Prop51ColorIndex
 90
      256
102
RTVSPost2010Prop51ColorRGB
 90
-16777216
102
RTVSPost2010PropOp51
 70
     0
102
RTVSPost2010Prop52
140
1.0
102
RTVSPost2010PropOp52
 70
     0
102
RTVSPost2010Prop53
 90
        2
102
RTVSPost2010PropOp53
 70
     1
102
RTVSPost2010Prop54
  1
strokes_ogs.tif
102
RTVSPost2010PropOp54
 70
     1
102
RTVSPost2010Prop55
280
     0
102
RTVSPost2010PropOp55
 70
     1
102
RTVSPost2010Prop56
140
1.0
102
RTVSPost2010PropOp56
 70
     1
102
RTVSPost2010Prop57
140
1.0
102
RTVSPost2010PropOp57
 70
     1
  0
XRECORD
  5
1EE
102
{ACAD_REACTORS
330
1ED
102
}
330
1ED
100
AcDbXrecord
280
     1
102
RTVSPropertyOp0
 70
     0
102
RTVSPropertyOp1
 70
     0
102
RTVSPropertyOp2
 70
     0
102
RTVSPropertyOp3
 70
     0
102
RTVSPropertyOp4
 70
     0
102
RTVSPropertyOp5
 70
     0
102
RTVSPropertyOp6
 70
     0
102
RTVSPropertyOp7
 70
     0
102
RTVSPropertyOp8
 70
     0
102
RTVSPropertyOp9
 70
     0
102
RTVSPropertyOp10
 70
     0
102
RTVSPropertyOp11
 70
     0
102
RTVSPropertyOp12
 70
     0
102
RTVSPropertyOp13
 70
     0
102
RTVSPropertyOp14
 70
     2
102
RTVSPropertyOp15
 70
     0
102
RTVSPropertyOp16
 70
     0
102
RTVSPropertyOp17
 70
     0
102
RTVSPropertyOp18
 70
     0
102
RTVSPropertyOp19
 70
     0
102
RTVSPropertyOp20
 70
     0
102
RTVSPropertyOp21
 70
     0
102
RTVSPropertyOp22
 70
     0
102
RTVSPropertyOp23
 70
     0
102
RTVSPropertyOp24
 70
     0
102
RTVSPropertyOp25
 70
     0
102
RTVSPropertyOp26
 70
     0
102
RTVSPropertyOp27
 70
     0
102
RTVSPropertyOp28
 70
     0
102
RTVSPropertyOp29
 70
     0
102
RTVSPropertyOp30
 70
     0
102
RTVSPropertyOp31
 70
     0
102
RTVSPropertyOp32
 70
     0
102
RTVSPropertyOp33
 70
     0
102
RTVSPropertyOp34
 70
     0
102
RTVSPropertyOp35
 70
     0
102
RTVSPropertyOp36
 70
     0
102
RTVSPropertyOp37
 70
     0
102
RTVSPropertyOp38
 70
     0
102
RTVSPropertyOp39
 70
     0
102
RTVSPropertyOp40
 70
     0
102
RTVSPropertyOp41
 70
     0
102
RTVSPropertyOp42
 70
     0
102
RTVSPropertyOp43
 70
     0
102
RTVSPropertyOp44
 70
     0
102
RTVSPropertyOp45
 70
     0
102
RTVSPropertyOp46
 70
     0
102
RTVSPropertyOp47
 70
     0
102
RTVSPropertyOp48
 70
     0
102
RTVSPropertyOp49
 70
     0
102
RTVSPropertyOp50
 70
     0
102
RTVSPropertyOp51
 70
     0
102
RTVSPropertyOp52
 70
     0
102
RTVSPropertyOp53
 70
     0
102
RTVSPropertyOp54
 70
     0
102
RTVSPropertyOp55
 70
     0
102
RTVSPropertyOp56
 70
     0
102
RTVSPropertyOp57
 70
     0
102
RTVSPost2010Prop28
280
     0
102
RTVSPost2010PropOp28
 70
     0
102
RTVSPost2010Prop29
280
     1
102
RTVSPost2010PropOp29
 70
     0
102
RTVSPost2010Prop30
280
     1
102
RTVSPost2010PropOp30
 70
     0
102
RTVSPost2010Prop31
280
     0
102
RTVSPost2010PropOp31
 70
     0
102
RTVSPost2010Prop32
280
     0
102
RTVSPost2010PropOp32
 70
     0
102
RTVSPost2010Prop33
280
     0
102
RTVSPost2010PropOp33
 70
     0
102
RTVSPost2010Prop34
280
     0
102
RTVSPost2010PropOp34
 70
     0
102
RTVSPost2010Prop35
280
     0
102
RTVSPost2010PropOp35
 70
     0
102
RTVSPost2010Prop36
280
     0
102
RTVSPost2010PropOp36
 70
     0
102
RTVSPost2010Prop37
 90
       50
102
RTVSPost2010PropOp37
 70
     0
102
RTVSPost2010Prop38
140
0.0
102
RTVSPost2010PropOp38
 70
     0
102
RTVSPost2010Prop39
140
1.0
102
RTVSPost2010PropOp39
 70
     0
102
RTVSPost2010Prop40
 90
        0
102
RTVSPost2010PropOp40
 70
     0
102
RTVSPost2010Prop41ColorIndex
 90
       18
102
RTVSPost2010Prop41ColorRGB
 90
        0
102
RTVSPost2010PropOp41
 70
     0
102
RTVSPost2010Prop42
 90
       50
102
RTVSPost2010PropOp42
 70
     0
102
RTVSPost2010Prop43
 90
        3
102
RTVSPost2010PropOp43
 70
     0
102
RTVSPost2010Prop44ColorIndex
 90
        5
102
RTVSPost2010Prop44ColorRGB
 90
      255
102
RTVSPost2010PropOp44
 70
     0
102
RTVSPost2010Prop45
280
     0
102
RTVSPost2010PropOp45
 70
     0
102
RTVSPost2010Prop46
 90
       50
102
RTVSPost2010PropOp46
 70
     0
102
RTVSPost2010Prop47
 90
       50
102
RTVSPost2010PropOp47
 70
     0
102
RTVSPost2010Prop48
 90
       50
102
RTVSPost2010PropOp48
 70
     0
102
RTVSPost2010Prop49
280
     0
102
RTVSPost2010PropOp49
 70
     0
102
RTVSPost2010Prop50
 90
       50
102
RTVSPost2010PropOp50
 70
     0
102
RTVSPost2010Prop51ColorIndex
 90
      256
102
RTVSPost2010Prop51ColorRGB
 90
-16777216
102
RTVSPost2010PropOp51
 70
     0
102
RTVSPost2010Prop52
140
1.0
102
RTVSPost2010PropOp52
 70
     0
102
RTVSPost2010Prop53
 90
        2
102
RTVSPost2010PropOp53
 70
     0
102
RTVSPost2010Prop54
  1
strokes_ogs.tif
102
RTVSPost2010PropOp54
 70
     0
102
RTVSPost2010Prop55
280
     0
102
RTVSPost2010PropOp55
 70
     0
102
RTVSPost2010Prop56
140
1.0
102
RTVSPost2010PropOp56
 70
     0
102
RTVSPost2010Prop57
140
1.0
102
RTVSPost2010PropOp57
 70
     0
  0
XRECORD
  5
1E6
102
{ACAD_REACTORS
330
1E5
102
}
330
1E5
100
AcDbXrecord
280
     1
102
RTVSPropertyOp0
 70
     1
102
RTVSPropertyOp1
 70
     1
102
RTVSPropertyOp2
 70
     1
102
RTVSPropertyOp3
 70
     1
102
RTVSPropertyOp4
 70
     1
102
RTVSPropertyOp5
 70
     1
102
RTVSPropertyOp6
 70
     1
102
RTVSPropertyOp7
 70
     1
102
RTVSPropertyOp8
 70
     1
102
RTVSPropertyOp9
 70
     1
102
RTVSPropertyOp10
 70
     1
102
RTVSPropertyOp11
 70
     1
102
RTVSPropertyOp12
 70
     1
102
RTVSPropertyOp13
 70
     1
102
RTVSPropertyOp14
 70
     1
102
RTVSPropertyOp15
 70
     1
102
RTVSPropertyOp16
 70
     1
102
RTVSPropertyOp17
 70
     1
102
RTVSPropertyOp18
 70
     1
102
RTVSPropertyOp19
 70
     1
102
RTVSPropertyOp20
 70
     1
102
RTVSPropertyOp21
 70
     1
102
RTVSPropertyOp22
 70
     1
102
RTVSPropertyOp23
 70
     1
102
RTVSPropertyOp24
 70
     1
102
RTVSPropertyOp25
 70
     1
102
RTVSPropertyOp26
 70
     1
102
RTVSPropertyOp27
 70
     1
102
RTVSPropertyOp28
 70
     1
102
RTVSPropertyOp29
 70
     1
102
RTVSPropertyOp30
 70
     1
102
RTVSPropertyOp31
 70
     1
102
RTVSPropertyOp32
 70
     1
102
RTVSPropertyOp33
 70
     1
102
RTVSPropertyOp34
 70
     1
102
RTVSPropertyOp35
 70
     1
102
RTVSPropertyOp36
 70
     1
102
RTVSPropertyOp37
 70
     1
102
RTVSPropertyOp38
 70
     1
102
RTVSPropertyOp39
 70
     1
102
RTVSPropertyOp40
 70
     1
102
RTVSPropertyOp41
 70
     1
102
RTVSPropertyOp42
 70
     1
102
RTVSPropertyOp43
 70
     1
102
RTVSPropertyOp44
 70
     1
102
RTVSPropertyOp45
 70
     1
102
RTVSPropertyOp46
 70
     1
102
RTVSPropertyOp47
 70
     1
102
RTVSPropertyOp48
 70
     1
102
RTVSPropertyOp49
 70
     1
102
RTVSPropertyOp50
 70
     1
102
RTVSPropertyOp51
 70
     0
102
RTVSPropertyOp52
 70
     0
102
RTVSPropertyOp53
 70
     1
102
RTVSPropertyOp54
 70
     1
102
RTVSPropertyOp55
 70
     1
102
RTVSPropertyOp56
 70
     1
102
RTVSPropertyOp57
 70
     1
102
RTVSPost2010Prop28
280
     0
102
RTVSPost2010PropOp28
 70
     1
102
RTVSPost2010Prop29
280
     1
102
RTVSPost2010PropOp29
 70
     1
102
RTVSPost2010Prop30
280
     1
102
RTVSPost2010PropOp30
 70
     1
102
RTVSPost2010Prop31
280
     0
102
RTVSPost2010PropOp31
 70
     1
102
RTVSPost2010Prop32
280
     0
102
RTVSPost2010PropOp32
 70
     1
102
RTVSPost2010Prop33
280
     0
102
RTVSPost2010PropOp33
 70
     1
102
RTVSPost2010Prop34
280
     0
102
RTVSPost2010PropOp34
 70
     1
102
RTVSPost2010Prop35
280
     0
102
RTVSPost2010PropOp35
 70
     1
102
RTVSPost2010Prop36
280
     0
102
RTVSPost2010PropOp36
 70
     1
102
RTVSPost2010Prop37
 90
       50
102
RTVSPost2010PropOp37
 70
     1
102
RTVSPost2010Prop38
140
0.0
102
RTVSPost2010PropOp38
 70
     1
102
RTVSPost2010Prop39
140
1.0
102
RTVSPost2010PropOp39
 70
     1
102
RTVSPost2010Prop40
 90
        0
102
RTVSPost2010PropOp40
 70
     1
102
RTVSPost2010Prop41ColorIndex
 90
       18
102
RTVSPost2010Prop41ColorRGB
 90
        0
102
RTVSPost2010PropOp41
 70
     1
102
RTVSPost2010Prop42
 90
       50
102
RTVSPost2010PropOp42
 70
     1
102
RTVSPost2010Prop43
 90
        3
102
RTVSPost2010PropOp43
 70
     1
102
RTVSPost2010Prop44ColorIndex
 90
        5
102
RTVSPost2010Prop44ColorRGB
 90
      255
102
RTVSPost2010PropOp44
 70
     1
102
RTVSPost2010Prop45
280
     0
102
RTVSPost2010PropOp45
 70
     1
102
RTVSPost2010Prop46
 90
       50
102
RTVSPost2010PropOp46
 70
     1
102
RTVSPost2010Prop47
 90
       50
102
RTVSPost2010PropOp47
 70
     1
102
RTVSPost2010Prop48
 90
       50
102
RTVSPost2010PropOp48
 70
     1
102
RTVSPost2010Prop49
280
     0
102
RTVSPost2010PropOp49
 70
     1
102
RTVSPost2010Prop50
 90
       50
102
RTVSPost2010PropOp50
 70
     1
102
RTVSPost2010Prop51ColorIndex
 90
      256
102
RTVSPost2010Prop51ColorRGB
 90
-16777216
102
RTVSPost2010PropOp51
 70
     0
102
RTVSPost2010Prop52
140
1.0
102
RTVSPost2010PropOp52
 70
     0
102
RTVSPost2010Prop53
 90
        2
102
RTVSPost2010PropOp53
 70
     1
102
RTVSPost2010Prop54
  1
strokes_ogs.tif
102
RTVSPost2010PropOp54
 70
     1
102
RTVSPost2010Prop55
280
     0
102
RTVSPost2010PropOp55
 70
     1
102
RTVSPost2010Prop56
140
1.0
102
RTVSPost2010PropOp56
 70
     1
102
RTVSPost2010Prop57
140
1.0
102
RTVSPost2010PropOp57
 70
     1
  0
XRECORD
  5
1CA
102
{ACAD_REACTORS
330
1C9
102
}
330
1C9
100
AcDbXrecord
280
     1
102
RTVSPropertyOp0
 70
     1
102
RTVSPropertyOp1
 70
     1
102
RTVSPropertyOp2
 70
     1
102
RTVSPropertyOp3
 70
     1
102
RTVSPropertyOp4
 70
     1
102
RTVSPropertyOp5
 70
     1
102
RTVSPropertyOp6
 70
     1
102
RTVSPropertyOp7
 70
     1
102
RTVSPropertyOp8
 70
     1
102
RTVSPropertyOp9
 70
     1
102
RTVSPropertyOp10
 70
     1
102
RTVSPropertyOp11
 70
     1
102
RTVSPropertyOp12
 70
     1
102
RTVSPropertyOp13
 70
     1
102
RTVSPropertyOp14
 70
     1
102
RTVSPropertyOp15
 70
     1
102
RTVSPropertyOp16
 70
     1
102
RTVSPropertyOp17
 70
     1
102
RTVSPropertyOp18
 70
     1
102
RTVSPropertyOp19
 70
     1
102
RTVSPropertyOp20
 70
     1
102
RTVSPropertyOp21
 70
     1
102
RTVSPropertyOp22
 70
     1
102
RTVSPropertyOp23
 70
     1
102
RTVSPropertyOp24
 70
     1
102
RTVSPropertyOp25
 70
     1
102
RTVSPropertyOp26
 70
     1
102
RTVSPropertyOp27
 70
     1
102
RTVSPropertyOp28
 70
     1
102
RTVSPropertyOp29
 70
     1
102
RTVSPropertyOp30
 70
     1
102
RTVSPropertyOp31
 70
     1
102
RTVSPropertyOp32
 70
     1
102
RTVSPropertyOp33
 70
     1
102
RTVSPropertyOp34
 70
     1
102
RTVSPropertyOp35
 70
     1
102
RTVSPropertyOp36
 70
     1
102
RTVSPropertyOp37
 70
     1
102
RTVSPropertyOp38
 70
     1
102
RTVSPropertyOp39
 70
     1
102
RTVSPropertyOp40
 70
     1
102
RTVSPropertyOp41
 70
     1
102
RTVSPropertyOp42
 70
     1
102
RTVSPropertyOp43
 70
     1
102
RTVSPropertyOp44
 70
     1
102
RTVSPropertyOp45
 70
     1
102
RTVSPropertyOp46
 70
     1
102
RTVSPropertyOp47
 70
     1
102
RTVSPropertyOp48
 70
     1
102
RTVSPropertyOp49
 70
     1
102
RTVSPropertyOp50
 70
     1
102
RTVSPropertyOp51
 70
     0
102
RTVSPropertyOp52
 70
     0
102
RTVSPropertyOp53
 70
     1
102
RTVSPropertyOp54
 70
     1
102
RTVSPropertyOp55
 70
     1
102
RTVSPropertyOp56
 70
     1
102
RTVSPropertyOp57
 70
     1
102
RTVSPost2010Prop28
280
     0
102
RTVSPost2010PropOp28
 70
     1
102
RTVSPost2010Prop29
280
     1
102
RTVSPost2010PropOp29
 70
     1
102
RTVSPost2010Prop30
280
     1
102
RTVSPost2010PropOp30
 70
     1
102
RTVSPost2010Prop31
280
     0
102
RTVSPost2010PropOp31
 70
     1
102
RTVSPost2010Prop32
280
     0
102
RTVSPost2010PropOp32
 70
     1
102
RTVSPost2010Prop33
280
     0
102
RTVSPost2010PropOp33
 70
     1
102
RTVSPost2010Prop34
280
     0
102
RTVSPost2010PropOp34
 70
     1
102
RTVSPost2010Prop35
280
     0
102
RTVSPost2010PropOp35
 70
     1
102
RTVSPost2010Prop36
280
     0
102
RTVSPost2010PropOp36
 70
     1
102
RTVSPost2010Prop37
 90
       50
102
RTVSPost2010PropOp37
 70
     1
102
RTVSPost2010Prop38
140
0.0
102
RTVSPost2010PropOp38
 70
     1
102
RTVSPost2010Prop39
140
1.0
102
RTVSPost2010PropOp39
 70
     1
102
RTVSPost2010Prop40
 90
        0
102
RTVSPost2010PropOp40
 70
     1
102
RTVSPost2010Prop41ColorIndex
 90
       18
102
RTVSPost2010Prop41ColorRGB
 90
        0
102
RTVSPost2010PropOp41
 70
     1
102
RTVSPost2010Prop42
 90
       50
102
RTVSPost2010PropOp42
 70
     1
102
RTVSPost2010Prop43
 90
        3
102
RTVSPost2010PropOp43
 70
     1
102
RTVSPost2010Prop44ColorIndex
 90
        5
102
RTVSPost2010Prop44ColorRGB
 90
      255
102
RTVSPost2010PropOp44
 70
     1
102
RTVSPost2010Prop45
280
     0
102
RTVSPost2010PropOp45
 70
     1
102
RTVSPost2010Prop46
 90
       50
102
RTVSPost2010PropOp46
 70
     1
102
RTVSPost2010Prop47
 90
       50
102
RTVSPost2010PropOp47
 70
     1
102
RTVSPost2010Prop48
 90
       50
102
RTVSPost2010PropOp48
 70
     1
102
RTVSPost2010Prop49
280
     0
102
RTVSPost2010PropOp49
 70
     1
102
RTVSPost2010Prop50
 90
       50
102
RTVSPost2010PropOp50
 70
     1
102
RTVSPost2010Prop51ColorIndex
 90
      256
102
RTVSPost2010Prop51ColorRGB
 90
-16777216
102
RTVSPost2010PropOp51
 70
     0
102
RTVSPost2010Prop52
140
1.0
102
RTVSPost2010PropOp52
 70
     0
102
RTVSPost2010Prop53
 90
        2
102
RTVSPost2010PropOp53
 70
     1
102
RTVSPost2010Prop54
  1
strokes_ogs.tif
102
RTVSPost2010PropOp54
 70
     1
102
RTVSPost2010Prop55
280
     0
102
RTVSPost2010PropOp55
 70
     1
102
RTVSPost2010Prop56
140
1.0
102
RTVSPost2010PropOp56
 70
     1
102
RTVSPost2010Prop57
140
1.0
102
RTVSPost2010PropOp57
 70
     1
  0
XRECORD
  5
1CC
102
{ACAD_REACTORS
330
1CB
102
}
330
1CB
100
AcDbXrecord
280
     1
102
RTVSPropertyOp0
 70
     1
102
RTVSPropertyOp1
 70
     1
102
RTVSPropertyOp2
 70
     1
102
RTVSPropertyOp3
 70
     1
102
RTVSPropertyOp4
 70
     1
102
RTVSPropertyOp5
 70
     1
102
RTVSPropertyOp6
 70
     1
102
RTVSPropertyOp7
 70
     1
102
RTVSPropertyOp8
 70
     1
102
RTVSPropertyOp9
 70
     1
102
RTVSPropertyOp10
 70
     1
102
RTVSPropertyOp11
 70
     1
102
RTVSPropertyOp12
 70
     1
102
RTVSPropertyOp13
 70
     1
102
RTVSPropertyOp14
 70
     1
102
RTVSPropertyOp15
 70
     1
102
RTVSPropertyOp16
 70
     1
102
RTVSPropertyOp17
 70
     1
102
RTVSPropertyOp18
 70
     1
102
RTVSPropertyOp19
 70
     1
102
RTVSPropertyOp20
 70
     1
102
RTVSPropertyOp21
 70
     1
102
RTVSPropertyOp22
 70
     1
102
RTVSPropertyOp23
 70
     1
102
RTVSPropertyOp24
 70
     1
102
RTVSPropertyOp25
 70
     1
102
RTVSPropertyOp26
 70
     1
102
RTVSPropertyOp27
 70
     1
102
RTVSPropertyOp28
 70
     1
102
RTVSPropertyOp29
 70
     1
102
RTVSPropertyOp30
 70
     1
102
RTVSPropertyOp31
 70
     1
102
RTVSPropertyOp32
 70
     1
102
RTVSPropertyOp33
 70
     1
102
RTVSPropertyOp34
 70
     1
102
RTVSPropertyOp35
 70
     1
102
RTVSPropertyOp36
 70
     1
102
RTVSPropertyOp37
 70
     1
102
RTVSPropertyOp38
 70
     1
102
RTVSPropertyOp39
 70
     1
102
RTVSPropertyOp40
 70
     1
102
RTVSPropertyOp41
 70
     1
102
RTVSPropertyOp42
 70
     1
102
RTVSPropertyOp43
 70
     1
102
RTVSPropertyOp44
 70
     1
102
RTVSPropertyOp45
 70
     1
102
RTVSPropertyOp46
 70
     1
102
RTVSPropertyOp47
 70
     1
102
RTVSPropertyOp48
 70
     1
102
RTVSPropertyOp49
 70
     1
102
RTVSPropertyOp50
 70
     1
102
RTVSPropertyOp51
 70
     0
102
RTVSPropertyOp52
 70
     0
102
RTVSPropertyOp53
 70
     1
102
RTVSPropertyOp54
 70
     1
102
RTVSPropertyOp55
 70
     1
102
RTVSPropertyOp56
 70
     1
102
RTVSPropertyOp57
 70
     1
102
RTVSPost2010Prop28
280
     0
102
RTVSPost2010PropOp28
 70
     1
102
RTVSPost2010Prop29
280
     1
102
RTVSPost2010PropOp29
 70
     1
102
RTVSPost2010Prop30
280
     1
102
RTVSPost2010PropOp30
 70
     1
102
RTVSPost2010Prop31
280
     0
102
RTVSPost2010PropOp31
 70
     1
102
RTVSPost2010Prop32
280
     0
102
RTVSPost2010PropOp32
 70
     1
102
RTVSPost2010Prop33
280
     0
102
RTVSPost2010PropOp33
 70
     1
102
RTVSPost2010Prop34
280
     0
102
RTVSPost2010PropOp34
 70
     1
102
RTVSPost2010Prop35
280
     0
102
RTVSPost2010PropOp35
 70
     1
102
RTVSPost2010Prop36
280
     0
102
RTVSPost2010PropOp36
 70
     1
102
RTVSPost2010Prop37
 90
       50
102
RTVSPost2010PropOp37
 70
     1
102
RTVSPost2010Prop38
140
0.0
102
RTVSPost2010PropOp38
 70
     1
102
RTVSPost2010Prop39
140
1.0
102
RTVSPost2010PropOp39
 70
     1
102
RTVSPost2010Prop40
 90
        0
102
RTVSPost2010PropOp40
 70
     1
102
RTVSPost2010Prop41ColorIndex
 90
       18
102
RTVSPost2010Prop41ColorRGB
 90
        0
102
RTVSPost2010PropOp41
 70
     1
102
RTVSPost2010Prop42
 90
       50
102
RTVSPost2010PropOp42
 70
     1
102
RTVSPost2010Prop43
 90
        3
102
RTVSPost2010PropOp43
 70
     1
102
RTVSPost2010Prop44ColorIndex
 90
        5
102
RTVSPost2010Prop44ColorRGB
 90
      255
102
RTVSPost2010PropOp44
 70
     1
102
RTVSPost2010Prop45
280
     0
102
RTVSPost2010PropOp45
 70
     1
102
RTVSPost2010Prop46
 90
       50
102
RTVSPost2010PropOp46
 70
     1
102
RTVSPost2010Prop47
 90
       50
102
RTVSPost2010PropOp47
 70
     1
102
RTVSPost2010Prop48
 90
       50
102
RTVSPost2010PropOp48
 70
     1
102
RTVSPost2010Prop49
280
     0
102
RTVSPost2010PropOp49
 70
     1
102
RTVSPost2010Prop50
 90
       50
102
RTVSPost2010PropOp50
 70
     1
102
RTVSPost2010Prop51ColorIndex
 90
      256
102
RTVSPost2010Prop51ColorRGB
 90
-16777216
102
RTVSPost2010PropOp51
 70
     0
102
RTVSPost2010Prop52
140
1.0
102
RTVSPost2010PropOp52
 70
     0
102
RTVSPost2010Prop53
 90
        2
102
RTVSPost2010PropOp53
 70
     1
102
RTVSPost2010Prop54
  1
strokes_ogs.tif
102
RTVSPost2010PropOp54
 70
     1
102
RTVSPost2010Prop55
280
     0
102
RTVSPost2010PropOp55
 70
     1
102
RTVSPost2010Prop56
140
1.0
102
RTVSPost2010PropOp56
 70
     1
102
RTVSPost2010Prop57
140
1.0
102
RTVSPost2010PropOp57
 70
     1
  0
XRECORD
  5
1CE
102
{ACAD_REACTORS
330
1CD
102
}
330
1CD
100
AcDbXrecord
280
     1
102
RTVSPropertyOp0
 70
     1
102
RTVSPropertyOp1
 70
     1
102
RTVSPropertyOp2
 70
     1
102
RTVSPropertyOp3
 70
     1
102
RTVSPropertyOp4
 70
     1
102
RTVSPropertyOp5
 70
     1
102
RTVSPropertyOp6
 70
     1
102
RTVSPropertyOp7
 70
     1
102
RTVSPropertyOp8
 70
     1
102
RTVSPropertyOp9
 70
     1
102
RTVSPropertyOp10
 70
     1
102
RTVSPropertyOp11
 70
     1
102
RTVSPropertyOp12
 70
     1
102
RTVSPropertyOp13
 70
     1
102
RTVSPropertyOp14
 70
     1
102
RTVSPropertyOp15
 70
     1
102
RTVSPropertyOp16
 70
     1
102
RTVSPropertyOp17
 70
     1
102
RTVSPropertyOp18
 70
     1
102
RTVSPropertyOp19
 70
     1
102
RTVSPropertyOp20
 70
     1
102
RTVSPropertyOp21
 70
     1
102
RTVSPropertyOp22
 70
     1
102
RTVSPropertyOp23
 70
     1
102
RTVSPropertyOp24
 70
     1
102
RTVSPropertyOp25
 70
     1
102
RTVSPropertyOp26
 70
     1
102
RTVSPropertyOp27
 70
     1
102
RTVSPropertyOp28
 70
     1
102
RTVSPropertyOp29
 70
     1
102
RTVSPropertyOp30
 70
     1
102
RTVSPropertyOp31
 70
     1
102
RTVSPropertyOp32
 70
     1
102
RTVSPropertyOp33
 70
     1
102
RTVSPropertyOp34
 70
     1
102
RTVSPropertyOp35
 70
     1
102
RTVSPropertyOp36
 70
     1
102
RTVSPropertyOp37
 70
     1
102
RTVSPropertyOp38
 70
     1
102
RTVSPropertyOp39
 70
     1
102
RTVSPropertyOp40
 70
     1
102
RTVSPropertyOp41
 70
     1
102
RTVSPropertyOp42
 70
     1
102
RTVSPropertyOp43
 70
     1
102
RTVSPropertyOp44
 70
     1
102
RTVSPropertyOp45
 70
     1
102
RTVSPropertyOp46
 70
     1
102
RTVSPropertyOp47
 70
     1
102
RTVSPropertyOp48
 70
     1
102
RTVSPropertyOp49
 70
     1
102
RTVSPropertyOp50
 70
     1
102
RTVSPropertyOp51
 70
     0
102
RTVSPropertyOp52
 70
     0
102
RTVSPropertyOp53
 70
     1
102
RTVSPropertyOp54
 70
     1
102
RTVSPropertyOp55
 70
     1
102
RTVSPropertyOp56
 70
     1
102
RTVSPropertyOp57
 70
     1
102
RTVSPost2010Prop28
280
     0
102
RTVSPost2010PropOp28
 70
     1
102
RTVSPost2010Prop29
280
     1
102
RTVSPost2010PropOp29
 70
     1
102
RTVSPost2010Prop30
280
     1
102
RTVSPost2010PropOp30
 70
     1
102
RTVSPost2010Prop31
280
     0
102
RTVSPost2010PropOp31
 70
     1
102
RTVSPost2010Prop32
280
     0
102
RTVSPost2010PropOp32
 70
     1
102
RTVSPost2010Prop33
280
     0
102
RTVSPost2010PropOp33
 70
     1
102
RTVSPost2010Prop34
280
     0
102
RTVSPost2010PropOp34
 70
     1
102
RTVSPost2010Prop35
280
     0
102
RTVSPost2010PropOp35
 70
     1
102
RTVSPost2010Prop36
280
     0
102
RTVSPost2010PropOp36
 70
     1
102
RTVSPost2010Prop37
 90
       50
102
RTVSPost2010PropOp37
 70
     1
102
RTVSPost2010Prop38
140
0.0
102
RTVSPost2010PropOp38
 70
     1
102
RTVSPost2010Prop39
140
1.0
102
RTVSPost2010PropOp39
 70
     1
102
RTVSPost2010Prop40
 90
        0
102
RTVSPost2010PropOp40
 70
     1
102
RTVSPost2010Prop41ColorIndex
 90
       18
102
RTVSPost2010Prop41ColorRGB
 90
        0
102
RTVSPost2010PropOp41
 70
     1
102
RTVSPost2010Prop42
 90
       50
102
RTVSPost2010PropOp42
 70
     1
102
RTVSPost2010Prop43
 90
        3
102
RTVSPost2010PropOp43
 70
     1
102
RTVSPost2010Prop44ColorIndex
 90
        5
102
RTVSPost2010Prop44ColorRGB
 90
      255
102
RTVSPost2010PropOp44
 70
     1
102
RTVSPost2010Prop45
280
     0
102
RTVSPost2010PropOp45
 70
     1
102
RTVSPost2010Prop46
 90
       50
102
RTVSPost2010PropOp46
 70
     1
102
RTVSPost2010Prop47
 90
       50
102
RTVSPost2010PropOp47
 70
     1
102
RTVSPost2010Prop48
 90
       50
102
RTVSPost2010PropOp48
 70
     1
102
RTVSPost2010Prop49
280
     0
102
RTVSPost2010PropOp49
 70
     1
102
RTVSPost2010Prop50
 90
       50
102
RTVSPost2010PropOp50
 70
     1
102
RTVSPost2010Prop51ColorIndex
 90
      256
102
RTVSPost2010Prop51ColorRGB
 90
-16777216
102
RTVSPost2010PropOp51
 70
     0
102
RTVSPost2010Prop52
140
1.0
102
RTVSPost2010PropOp52
 70
     0
102
RTVSPost2010Prop53
 90
        2
102
RTVSPost2010PropOp53
 70
     1
102
RTVSPost2010Prop54
  1
strokes_ogs.tif
102
RTVSPost2010PropOp54
 70
     1
102
RTVSPost2010Prop55
280
     0
102
RTVSPost2010PropOp55
 70
     1
102
RTVSPost2010Prop56
140
1.0
102
RTVSPost2010PropOp56
 70
     1
102
RTVSPost2010Prop57
140
1.0
102
RTVSPost2010PropOp57
 70
     1
  0
XRECORD
  5
1D0
102
{ACAD_REACTORS
330
1CF
102
}
330
1CF
100
AcDbXrecord
280
     1
102
RTVSPropertyOp0
 70
     1
102
RTVSPropertyOp1
 70
     1
102
RTVSPropertyOp2
 70
     1
102
RTVSPropertyOp3
 70
     1
102
RTVSPropertyOp4
 70
     1
102
RTVSPropertyOp5
 70
     1
102
RTVSPropertyOp6
 70
     1
102
RTVSPropertyOp7
 70
     1
102
RTVSPropertyOp8
 70
     1
102
RTVSPropertyOp9
 70
     1
102
RTVSPropertyOp10
 70
     1
102
RTVSPropertyOp11
 70
     1
102
RTVSPropertyOp12
 70
     1
102
RTVSPropertyOp13
 70
     1
102
RTVSPropertyOp14
 70
     1
102
RTVSPropertyOp15
 70
     1
102
RTVSPropertyOp16
 70
     1
102
RTVSPropertyOp17
 70
     1
102
RTVSPropertyOp18
 70
     1
102
RTVSPropertyOp19
 70
     1
102
RTVSPropertyOp20
 70
     1
102
RTVSPropertyOp21
 70
     1
102
RTVSPropertyOp22
 70
     1
102
RTVSPropertyOp23
 70
     1
102
RTVSPropertyOp24
 70
     1
102
RTVSPropertyOp25
 70
     1
102
RTVSPropertyOp26
 70
     1
102
RTVSPropertyOp27
 70
     1
102
RTVSPropertyOp28
 70
     1
102
RTVSPropertyOp29
 70
     1
102
RTVSPropertyOp30
 70
     1
102
RTVSPropertyOp31
 70
     1
102
RTVSPropertyOp32
 70
     1
102
RTVSPropertyOp33
 70
     1
102
RTVSPropertyOp34
 70
     1
102
RTVSPropertyOp35
 70
     1
102
RTVSPropertyOp36
 70
     1
102
RTVSPropertyOp37
 70
     1
102
RTVSPropertyOp38
 70
     1
102
RTVSPropertyOp39
 70
     1
102
RTVSPropertyOp40
 70
     1
102
RTVSPropertyOp41
 70
     1
102
RTVSPropertyOp42
 70
     1
102
RTVSPropertyOp43
 70
     1
102
RTVSPropertyOp44
 70
     1
102
RTVSPropertyOp45
 70
     1
102
RTVSPropertyOp46
 70
     1
102
RTVSPropertyOp47
 70
     1
102
RTVSPropertyOp48
 70
     1
102
RTVSPropertyOp49
 70
     1
102
RTVSPropertyOp50
 70
     1
102
RTVSPropertyOp51
 70
     0
102
RTVSPropertyOp52
 70
     0
102
RTVSPropertyOp53
 70
     1
102
RTVSPropertyOp54
 70
     1
102
RTVSPropertyOp55
 70
     1
102
RTVSPropertyOp56
 70
     1
102
RTVSPropertyOp57
 70
     1
102
RTVSPost2010Prop28
280
     0
102
RTVSPost2010PropOp28
 70
     1
102
RTVSPost2010Prop29
280
     1
102
RTVSPost2010PropOp29
 70
     1
102
RTVSPost2010Prop30
280
     1
102
RTVSPost2010PropOp30
 70
     1
102
RTVSPost2010Prop31
280
     0
102
RTVSPost2010PropOp31
 70
     1
102
RTVSPost2010Prop32
280
     0
102
RTVSPost2010PropOp32
 70
     1
102
RTVSPost2010Prop33
280
     0
102
RTVSPost2010PropOp33
 70
     1
102
RTVSPost2010Prop34
280
     0
102
RTVSPost2010PropOp34
 70
     1
102
RTVSPost2010Prop35
280
     0
102
RTVSPost2010PropOp35
 70
     1
102
RTVSPost2010Prop36
280
     0
102
RTVSPost2010PropOp36
 70
     1
102
RTVSPost2010Prop37
 90
       50
102
RTVSPost2010PropOp37
 70
     1
102
RTVSPost2010Prop38
140
0.0
102
RTVSPost2010PropOp38
 70
     1
102
RTVSPost2010Prop39
140
1.0
102
RTVSPost2010PropOp39
 70
     1
102
RTVSPost2010Prop40
 90
        0
102
RTVSPost2010PropOp40
 70
     1
102
RTVSPost2010Prop41ColorIndex
 90
       18
102
RTVSPost2010Prop41ColorRGB
 90
        0
102
RTVSPost2010PropOp41
 70
     1
102
RTVSPost2010Prop42
 90
       50
102
RTVSPost2010PropOp42
 70
     1
102
RTVSPost2010Prop43
 90
        3
102
RTVSPost2010PropOp43
 70
     1
102
RTVSPost2010Prop44ColorIndex
 90
        5
102
RTVSPost2010Prop44ColorRGB
 90
      255
102
RTVSPost2010PropOp44
 70
     1
102
RTVSPost2010Prop45
280
     0
102
RTVSPost2010PropOp45
 70
     1
102
RTVSPost2010Prop46
 90
       50
102
RTVSPost2010PropOp46
 70
     1
102
RTVSPost2010Prop47
 90
       50
102
RTVSPost2010PropOp47
 70
     1
102
RTVSPost2010Prop48
 90
       50
102
RTVSPost2010PropOp48
 70
     1
102
RTVSPost2010Prop49
280
     0
102
RTVSPost2010PropOp49
 70
     1
102
RTVSPost2010Prop50
 90
       50
102
RTVSPost2010PropOp50
 70
     1
102
RTVSPost2010Prop51ColorIndex
 90
      256
102
RTVSPost2010Prop51ColorRGB
 90
-16777216
102
RTVSPost2010PropOp51
 70
     0
102
RTVSPost2010Prop52
140
1.0
102
RTVSPost2010PropOp52
 70
     0
102
RTVSPost2010Prop53
 90
        2
102
RTVSPost2010PropOp53
 70
     1
102
RTVSPost2010Prop54
  1
strokes_ogs.tif
102
RTVSPost2010PropOp54
 70
     1
102
RTVSPost2010Prop55
280
     0
102
RTVSPost2010PropOp55
 70
     1
102
RTVSPost2010Prop56
140
1.0
102
RTVSPost2010PropOp56
 70
     1
102
RTVSPost2010Prop57
140
1.0
102
RTVSPost2010PropOp57
 70
     1
  0
XRECORD
  5
1D6
102
{ACAD_REACTORS
330
1D5
102
}
330
1D5
100
AcDbXrecord
280
     1
102
RTVSPropertyOp0
 70
     1
102
RTVSPropertyOp1
 70
     1
102
RTVSPropertyOp2
 70
     1
102
RTVSPropertyOp3
 70
     1
102
RTVSPropertyOp4
 70
     1
102
RTVSPropertyOp5
 70
     1
102
RTVSPropertyOp6
 70
     1
102
RTVSPropertyOp7
 70
     1
102
RTVSPropertyOp8
 70
     1
102
RTVSPropertyOp9
 70
     1
102
RTVSPropertyOp10
 70
     1
102
RTVSPropertyOp11
 70
     1
102
RTVSPropertyOp12
 70
     1
102
RTVSPropertyOp13
 70
     1
102
RTVSPropertyOp14
 70
     1
102
RTVSPropertyOp15
 70
     1
102
RTVSPropertyOp16
 70
     1
102
RTVSPropertyOp17
 70
     1
102
RTVSPropertyOp18
 70
     1
102
RTVSPropertyOp19
 70
     1
102
RTVSPropertyOp20
 70
     1
102
RTVSPropertyOp21
 70
     1
102
RTVSPropertyOp22
 70
     1
102
RTVSPropertyOp23
 70
     1
102
RTVSPropertyOp24
 70
     1
102
RTVSPropertyOp25
 70
     1
102
RTVSPropertyOp26
 70
     1
102
RTVSPropertyOp27
 70
     1
102
RTVSPropertyOp28
 70
     1
102
RTVSPropertyOp29
 70
     1
102
RTVSPropertyOp30
 70
     1
102
RTVSPropertyOp31
 70
     1
102
RTVSPropertyOp32
 70
     1
102
RTVSPropertyOp33
 70
     1
102
RTVSPropertyOp34
 70
     1
102
RTVSPropertyOp35
 70
     1
102
RTVSPropertyOp36
 70
     1
102
RTVSPropertyOp37
 70
     1
102
RTVSPropertyOp38
 70
     1
102
RTVSPropertyOp39
 70
     1
102
RTVSPropertyOp40
 70
     1
102
RTVSPropertyOp41
 70
     1
102
RTVSPropertyOp42
 70
     1
102
RTVSPropertyOp43
 70
     1
102
RTVSPropertyOp44
 70
     1
102
RTVSPropertyOp45
 70
     1
102
RTVSPropertyOp46
 70
     1
102
RTVSPropertyOp47
 70
     1
102
RTVSPropertyOp48
 70
     1
102
RTVSPropertyOp49
 70
     1
102
RTVSPropertyOp50
 70
     1
102
RTVSPropertyOp51
 70
     0
102
RTVSPropertyOp52
 70
     0
102
RTVSPropertyOp53
 70
     1
102
RTVSPropertyOp54
 70
     1
102
RTVSPropertyOp55
 70
     1
102
RTVSPropertyOp56
 70
     1
102
RTVSPropertyOp57
 70
     1
102
RTVSPost2010Prop28
280
     0
102
RTVSPost2010PropOp28
 70
     1
102
RTVSPost2010Prop29
280
     1
102
RTVSPost2010PropOp29
 70
     1
102
RTVSPost2010Prop30
280
     1
102
RTVSPost2010PropOp30
 70
     1
102
RTVSPost2010Prop31
280
     0
102
RTVSPost2010PropOp31
 70
     1
102
RTVSPost2010Prop32
280
     0
102
RTVSPost2010PropOp32
 70
     1
102
RTVSPost2010Prop33
280
     0
102
RTVSPost2010PropOp33
 70
     1
102
RTVSPost2010Prop34
280
     0
102
RTVSPost2010PropOp34
 70
     1
102
RTVSPost2010Prop35
280
     0
102
RTVSPost2010PropOp35
 70
     1
102
RTVSPost2010Prop36
280
     0
102
RTVSPost2010PropOp36
 70
     1
102
RTVSPost2010Prop37
 90
       50
102
RTVSPost2010PropOp37
 70
     1
102
RTVSPost2010Prop38
140
0.0
102
RTVSPost2010PropOp38
 70
     1
102
RTVSPost2010Prop39
140
1.0
102
RTVSPost2010PropOp39
 70
     1
102
RTVSPost2010Prop40
 90
        0
102
RTVSPost2010PropOp40
 70
     1
102
RTVSPost2010Prop41ColorIndex
 90
       18
102
RTVSPost2010Prop41ColorRGB
 90
        0
102
RTVSPost2010PropOp41
 70
     1
102
RTVSPost2010Prop42
 90
       50
102
RTVSPost2010PropOp42
 70
     1
102
RTVSPost2010Prop43
 90
        3
102
RTVSPost2010PropOp43
 70
     1
102
RTVSPost2010Prop44ColorIndex
 90
        5
102
RTVSPost2010Prop44ColorRGB
 90
      255
102
RTVSPost2010PropOp44
 70
     1
102
RTVSPost2010Prop45
280
     0
102
RTVSPost2010PropOp45
 70
     1
102
RTVSPost2010Prop46
 90
       50
102
RTVSPost2010PropOp46
 70
     1
102
RTVSPost2010Prop47
 90
       50
102
RTVSPost2010PropOp47
 70
     1
102
RTVSPost2010Prop48
 90
       50
102
RTVSPost2010PropOp48
 70
     1
102
RTVSPost2010Prop49
280
     0
102
RTVSPost2010PropOp49
 70
     1
102
RTVSPost2010Prop50
 90
       50
102
RTVSPost2010PropOp50
 70
     1
102
RTVSPost2010Prop51ColorIndex
 90
      256
102
RTVSPost2010Prop51ColorRGB
 90
-16777216
102
RTVSPost2010PropOp51
 70
     0
102
RTVSPost2010Prop52
140
1.0
102
RTVSPost2010PropOp52
 70
     0
102
RTVSPost2010Prop53
 90
        2
102
RTVSPost2010PropOp53
 70
     1
102
RTVSPost2010Prop54
  1
strokes_ogs.tif
102
RTVSPost2010PropOp54
 70
     1
102
RTVSPost2010Prop55
280
     0
102
RTVSPost2010PropOp55
 70
     1
102
RTVSPost2010Prop56
140
1.0
102
RTVSPost2010PropOp56
 70
     1
102
RTVSPost2010Prop57
140
1.0
102
RTVSPost2010PropOp57
 70
     1
  0
XRECORD
  5
1EA
102
{ACAD_REACTORS
330
1E9
102
}
330
1E9
100
AcDbXrecord
280
     1
102
RTVSPropertyOp0
 70
     0
102
RTVSPropertyOp1
 70
     0
102
RTVSPropertyOp2
 70
     0
102
RTVSPropertyOp3
 70
     0
102
RTVSPropertyOp4
 70
     0
102
RTVSPropertyOp5
 70
     0
102
RTVSPropertyOp6
 70
     0
102
RTVSPropertyOp7
 70
     0
102
RTVSPropertyOp8
 70
     0
102
RTVSPropertyOp9
 70
     0
102
RTVSPropertyOp10
 70
     0
102
RTVSPropertyOp11
 70
     0
102
RTVSPropertyOp12
 70
     0
102
RTVSPropertyOp13
 70
     0
102
RTVSPropertyOp14
 70
     2
102
RTVSPropertyOp15
 70
     0
102
RTVSPropertyOp16
 70
     0
102
RTVSPropertyOp17
 70
     0
102
RTVSPropertyOp18
 70
     0
102
RTVSPropertyOp19
 70
     0
102
RTVSPropertyOp20
 70
     0
102
RTVSPropertyOp21
 70
     0
102
RTVSPropertyOp22
 70
     0
102
RTVSPropertyOp23
 70
     0
102
RTVSPropertyOp24
 70
     0
102
RTVSPropertyOp25
 70
     0
102
RTVSPropertyOp26
 70
     0
102
RTVSPropertyOp27
 70
     0
102
RTVSPropertyOp28
 70
     0
102
RTVSPropertyOp29
 70
     0
102
RTVSPropertyOp30
 70
     0
102
RTVSPropertyOp31
 70
     0
102
RTVSPropertyOp32
 70
     0
102
RTVSPropertyOp33
 70
     0
102
RTVSPropertyOp34
 70
     0
102
RTVSPropertyOp35
 70
     0
102
RTVSPropertyOp36
 70
     0
102
RTVSPropertyOp37
 70
     0
102
RTVSPropertyOp38
 70
     0
102
RTVSPropertyOp39
 70
     0
102
RTVSPropertyOp40
 70
     0
102
RTVSPropertyOp41
 70
     0
102
RTVSPropertyOp42
 70
     0
102
RTVSPropertyOp43
 70
     0
102
RTVSPropertyOp44
 70
     0
102
RTVSPropertyOp45
 70
     0
102
RTVSPropertyOp46
 70
     0
102
RTVSPropertyOp47
 70
     0
102
RTVSPropertyOp48
 70
     0
102
RTVSPropertyOp49
 70
     0
102
RTVSPropertyOp50
 70
     0
102
RTVSPropertyOp51
 70
     0
102
RTVSPropertyOp52
 70
     0
102
RTVSPropertyOp53
 70
     0
102
RTVSPropertyOp54
 70
     0
102
RTVSPropertyOp55
 70
     0
102
RTVSPropertyOp56
 70
     0
102
RTVSPropertyOp57
 70
     0
102
RTVSPost2010Prop28
280
     0
102
RTVSPost2010PropOp28
 70
     0
102
RTVSPost2010Prop29
280
     1
102
RTVSPost2010PropOp29
 70
     0
102
RTVSPost2010Prop30
280
     1
102
RTVSPost2010PropOp30
 70
     0
102
RTVSPost2010Prop31
280
     0
102
RTVSPost2010PropOp31
 70
     0
102
RTVSPost2010Prop32
280
     0
102
RTVSPost2010PropOp32
 70
     0
102
RTVSPost2010Prop33
280
     0
102
RTVSPost2010PropOp33
 70
     0
102
RTVSPost2010Prop34
280
     0
102
RTVSPost2010PropOp34
 70
     0
102
RTVSPost2010Prop35
280
     0
102
RTVSPost2010PropOp35
 70
     0
102
RTVSPost2010Prop36
280
     0
102
RTVSPost2010PropOp36
 70
     0
102
RTVSPost2010Prop37
 90
       50
102
RTVSPost2010PropOp37
 70
     0
102
RTVSPost2010Prop38
140
0.0
102
RTVSPost2010PropOp38
 70
     0
102
RTVSPost2010Prop39
140
1.0
102
RTVSPost2010PropOp39
 70
     0
102
RTVSPost2010Prop40
 90
        0
102
RTVSPost2010PropOp40
 70
     0
102
RTVSPost2010Prop41ColorIndex
 90
       18
102
RTVSPost2010Prop41ColorRGB
 90
        0
102
RTVSPost2010PropOp41
 70
     0
102
RTVSPost2010Prop42
 90
       50
102
RTVSPost2010PropOp42
 70
     0
102
RTVSPost2010Prop43
 90
        3
102
RTVSPost2010PropOp43
 70
     0
102
RTVSPost2010Prop44ColorIndex
 90
        5
102
RTVSPost2010Prop44ColorRGB
 90
      255
102
RTVSPost2010PropOp44
 70
     0
102
RTVSPost2010Prop45
280
     0
102
RTVSPost2010PropOp45
 70
     0
102
RTVSPost2010Prop46
 90
       50
102
RTVSPost2010PropOp46
 70
     0
102
RTVSPost2010Prop47
 90
       50
102
RTVSPost2010PropOp47
 70
     0
102
RTVSPost2010Prop48
 90
       50
102
RTVSPost2010PropOp48
 70
     0
102
RTVSPost2010Prop49
280
     0
102
RTVSPost2010PropOp49
 70
     0
102
RTVSPost2010Prop50
 90
       50
102
RTVSPost2010PropOp50
 70
     0
102
RTVSPost2010Prop51ColorIndex
 90
      256
102
RTVSPost2010Prop51ColorRGB
 90
-16777216
102
RTVSPost2010PropOp51
 70
     0
102
RTVSPost2010Prop52
140
1.0
102
RTVSPost2010PropOp52
 70
     0
102
RTVSPost2010Prop53
 90
        2
102
RTVSPost2010PropOp53
 70
     0
102
RTVSPost2010Prop54
  1
strokes_ogs.tif
102
RTVSPost2010PropOp54
 70
     0
102
RTVSPost2010Prop55
280
     0
102
RTVSPost2010PropOp55
 70
     0
102
RTVSPost2010Prop56
140
1.0
102
RTVSPost2010PropOp56
 70
     0
102
RTVSPost2010Prop57
140
1.0
102
RTVSPost2010PropOp57
 70
     0
  0
XRECORD
  5
1E4
102
{ACAD_REACTORS
330
1E3
102
}
330
1E3
100
AcDbXrecord
280
     1
102
RTVSPropertyOp0
 70
     1
102
RTVSPropertyOp1
 70
     1
102
RTVSPropertyOp2
 70
     1
102
RTVSPropertyOp3
 70
     1
102
RTVSPropertyOp4
 70
     1
102
RTVSPropertyOp5
 70
     1
102
RTVSPropertyOp6
 70
     1
102
RTVSPropertyOp7
 70
     1
102
RTVSPropertyOp8
 70
     1
102
RTVSPropertyOp9
 70
     1
102
RTVSPropertyOp10
 70
     1
102
RTVSPropertyOp11
 70
     1
102
RTVSPropertyOp12
 70
     1
102
RTVSPropertyOp13
 70
     1
102
RTVSPropertyOp14
 70
     1
102
RTVSPropertyOp15
 70
     1
102
RTVSPropertyOp16
 70
     1
102
RTVSPropertyOp17
 70
     1
102
RTVSPropertyOp18
 70
     1
102
RTVSPropertyOp19
 70
     1
102
RTVSPropertyOp20
 70
     1
102
RTVSPropertyOp21
 70
     1
102
RTVSPropertyOp22
 70
     1
102
RTVSPropertyOp23
 70
     1
102
RTVSPropertyOp24
 70
     1
102
RTVSPropertyOp25
 70
     1
102
RTVSPropertyOp26
 70
     1
102
RTVSPropertyOp27
 70
     1
102
RTVSPropertyOp28
 70
     1
102
RTVSPropertyOp29
 70
     1
102
RTVSPropertyOp30
 70
     1
102
RTVSPropertyOp31
 70
     1
102
RTVSPropertyOp32
 70
     1
102
RTVSPropertyOp33
 70
     1
102
RTVSPropertyOp34
 70
     1
102
RTVSPropertyOp35
 70
     1
102
RTVSPropertyOp36
 70
     1
102
RTVSPropertyOp37
 70
     1
102
RTVSPropertyOp38
 70
     1
102
RTVSPropertyOp39
 70
     1
102
RTVSPropertyOp40
 70
     1
102
RTVSPropertyOp41
 70
     1
102
RTVSPropertyOp42
 70
     1
102
RTVSPropertyOp43
 70
     1
102
RTVSPropertyOp44
 70
     1
102
RTVSPropertyOp45
 70
     1
102
RTVSPropertyOp46
 70
     1
102
RTVSPropertyOp47
 70
     1
102
RTVSPropertyOp48
 70
     1
102
RTVSPropertyOp49
 70
     1
102
RTVSPropertyOp50
 70
     1
102
RTVSPropertyOp51
 70
     0
102
RTVSPropertyOp52
 70
     0
102
RTVSPropertyOp53
 70
     1
102
RTVSPropertyOp54
 70
     1
102
RTVSPropertyOp55
 70
     1
102
RTVSPropertyOp56
 70
     1
102
RTVSPropertyOp57
 70
     1
102
RTVSPost2010Prop28
280
     0
102
RTVSPost2010PropOp28
 70
     1
102
RTVSPost2010Prop29
280
     1
102
RTVSPost2010PropOp29
 70
     1
102
RTVSPost2010Prop30
280
     1
102
RTVSPost2010PropOp30
 70
     1
102
RTVSPost2010Prop31
280
     0
102
RTVSPost2010PropOp31
 70
     1
102
RTVSPost2010Prop32
280
     0
102
RTVSPost2010PropOp32
 70
     1
102
RTVSPost2010Prop33
280
     0
102
RTVSPost2010PropOp33
 70
     1
102
RTVSPost2010Prop34
280
     0
102
RTVSPost2010PropOp34
 70
     1
102
RTVSPost2010Prop35
280
     0
102
RTVSPost2010PropOp35
 70
     1
102
RTVSPost2010Prop36
280
     0
102
RTVSPost2010PropOp36
 70
     1
102
RTVSPost2010Prop37
 90
       50
102
RTVSPost2010PropOp37
 70
     1
102
RTVSPost2010Prop38
140
0.0
102
RTVSPost2010PropOp38
 70
     1
102
RTVSPost2010Prop39
140
1.0
102
RTVSPost2010PropOp39
 70
     1
102
RTVSPost2010Prop40
 90
        0
102
RTVSPost2010PropOp40
 70
     1
102
RTVSPost2010Prop41ColorIndex
 90
       18
102
RTVSPost2010Prop41ColorRGB
 90
        0
102
RTVSPost2010PropOp41
 70
     1
102
RTVSPost2010Prop42
 90
       50
102
RTVSPost2010PropOp42
 70
     1
102
RTVSPost2010Prop43
 90
        3
102
RTVSPost2010PropOp43
 70
     1
102
RTVSPost2010Prop44ColorIndex
 90
        5
102
RTVSPost2010Prop44ColorRGB
 90
      255
102
RTVSPost2010PropOp44
 70
     1
102
RTVSPost2010Prop45
280
     0
102
RTVSPost2010PropOp45
 70
     1
102
RTVSPost2010Prop46
 90
       50
102
RTVSPost2010PropOp46
 70
     1
102
RTVSPost2010Prop47
 90
       50
102
RTVSPost2010PropOp47
 70
     1
102
RTVSPost2010Prop48
 90
       50
102
RTVSPost2010PropOp48
 70
     1
102
RTVSPost2010Prop49
280
     0
102
RTVSPost2010PropOp49
 70
     1
102
RTVSPost2010Prop50
 90
       50
102
RTVSPost2010PropOp50
 70
     1
102
RTVSPost2010Prop51ColorIndex
 90
      256
102
RTVSPost2010Prop51ColorRGB
 90
-16777216
102
RTVSPost2010PropOp51
 70
     0
102
RTVSPost2010Prop52
140
1.0
102
RTVSPost2010PropOp52
 70
     0
102
RTVSPost2010Prop53
 90
        2
102
RTVSPost2010PropOp53
 70
     1
102
RTVSPost2010Prop54
  1
strokes_ogs.tif
102
RTVSPost2010PropOp54
 70
     1
102
RTVSPost2010Prop55
280
     0
102
RTVSPost2010PropOp55
 70
     1
102
RTVSPost2010Prop56
140
1.0
102
RTVSPost2010PropOp56
 70
     1
102
RTVSPost2010Prop57
140
1.0
102
RTVSPost2010PropOp57
 70
     1
  0
XRECORD
  5
1EC
102
{ACAD_REACTORS
330
1EB
102
}
330
1EB
100
AcDbXrecord
280
     1
102
RTVSPropertyOp0
 70
     0
102
RTVSPropertyOp1
 70
     0
102
RTVSPropertyOp2
 70
     0
102
RTVSPropertyOp3
 70
     0
102
RTVSPropertyOp4
 70
     0
102
RTVSPropertyOp5
 70
     0
102
RTVSPropertyOp6
 70
     0
102
RTVSPropertyOp7
 70
     0
102
RTVSPropertyOp8
 70
     0
102
RTVSPropertyOp9
 70
     0
102
RTVSPropertyOp10
 70
     0
102
RTVSPropertyOp11
 70
     0
102
RTVSPropertyOp12
 70
     0
102
RTVSPropertyOp13
 70
     0
102
RTVSPropertyOp14
 70
     2
102
RTVSPropertyOp15
 70
     0
102
RTVSPropertyOp16
 70
     0
102
RTVSPropertyOp17
 70
     0
102
RTVSPropertyOp18
 70
     0
102
RTVSPropertyOp19
 70
     0
102
RTVSPropertyOp20
 70
     0
102
RTVSPropertyOp21
 70
     0
102
RTVSPropertyOp22
 70
     0
102
RTVSPropertyOp23
 70
     0
102
RTVSPropertyOp24
 70
     0
102
RTVSPropertyOp25
 70
     0
102
RTVSPropertyOp26
 70
     0
102
RTVSPropertyOp27
 70
     0
102
RTVSPropertyOp28
 70
     0
102
RTVSPropertyOp29
 70
     0
102
RTVSPropertyOp30
 70
     0
102
RTVSPropertyOp31
 70
     0
102
RTVSPropertyOp32
 70
     0
102
RTVSPropertyOp33
 70
     0
102
RTVSPropertyOp34
 70
     0
102
RTVSPropertyOp35
 70
     0
102
RTVSPropertyOp36
 70
     0
102
RTVSPropertyOp37
 70
     0
102
RTVSPropertyOp38
 70
     0
102
RTVSPropertyOp39
 70
     0
102
RTVSPropertyOp40
 70
     0
102
RTVSPropertyOp41
 70
     0
102
RTVSPropertyOp42
 70
     0
102
RTVSPropertyOp43
 70
     0
102
RTVSPropertyOp44
 70
     0
102
RTVSPropertyOp45
 70
     0
102
RTVSPropertyOp46
 70
     0
102
RTVSPropertyOp47
 70
     0
102
RTVSPropertyOp48
 70
     0
102
RTVSPropertyOp49
 70
     0
102
RTVSPropertyOp50
 70
     0
102
RTVSPropertyOp51
 70
     0
102
RTVSPropertyOp52
 70
     0
102
RTVSPropertyOp53
 70
     0
102
RTVSPropertyOp54
 70
     0
102
RTVSPropertyOp55
 70
     0
102
RTVSPropertyOp56
 70
     0
102
RTVSPropertyOp57
 70
     0
102
RTVSPost2010Prop28
280
     0
102
RTVSPost2010PropOp28
 70
     0
102
RTVSPost2010Prop29
280
     1
102
RTVSPost2010PropOp29
 70
     0
102
RTVSPost2010Prop30
280
     1
102
RTVSPost2010PropOp30
 70
     0
102
RTVSPost2010Prop31
280
     0
102
RTVSPost2010PropOp31
 70
     0
102
RTVSPost2010Prop32
280
     0
102
RTVSPost2010PropOp32
 70
     0
102
RTVSPost2010Prop33
280
     0
102
RTVSPost2010PropOp33
 70
     0
102
RTVSPost2010Prop34
280
     0
102
RTVSPost2010PropOp34
 70
     0
102
RTVSPost2010Prop35
280
     0
102
RTVSPost2010PropOp35
 70
     0
102
RTVSPost2010Prop36
280
     0
102
RTVSPost2010PropOp36
 70
     0
102
RTVSPost2010Prop37
 90
       50
102
RTVSPost2010PropOp37
 70
     0
102
RTVSPost2010Prop38
140
0.0
102
RTVSPost2010PropOp38
 70
     0
102
RTVSPost2010Prop39
140
1.0
102
RTVSPost2010PropOp39
 70
     0
102
RTVSPost2010Prop40
 90
        0
102
RTVSPost2010PropOp40
 70
     0
102
RTVSPost2010Prop41ColorIndex
 90
       18
102
RTVSPost2010Prop41ColorRGB
 90
        0
102
RTVSPost2010PropOp41
 70
     0
102
RTVSPost2010Prop42
 90
       50
102
RTVSPost2010PropOp42
 70
     0
102
RTVSPost2010Prop43
 90
        3
102
RTVSPost2010PropOp43
 70
     0
102
RTVSPost2010Prop44ColorIndex
 90
        5
102
RTVSPost2010Prop44ColorRGB
 90
      255
102
RTVSPost2010PropOp44
 70
     0
102
RTVSPost2010Prop45
280
     0
102
RTVSPost2010PropOp45
 70
     0
102
RTVSPost2010Prop46
 90
       50
102
RTVSPost2010PropOp46
 70
     0
102
RTVSPost2010Prop47
 90
       50
102
RTVSPost2010PropOp47
 70
     0
102
RTVSPost2010Prop48
 90
       50
102
RTVSPost2010PropOp48
 70
     0
102
RTVSPost2010Prop49
280
     0
102
RTVSPost2010PropOp49
 70
     0
102
RTVSPost2010Prop50
 90
       50
102
RTVSPost2010PropOp50
 70
     0
102
RTVSPost2010Prop51ColorIndex
 90
      256
102
RTVSPost2010Prop51ColorRGB
 90
-16777216
102
RTVSPost2010PropOp51
 70
     0
102
RTVSPost2010Prop52
140
1.0
102
RTVSPost2010PropOp52
 70
     0
102
RTVSPost2010Prop53
 90
        2
102
RTVSPost2010PropOp53
 70
     0
102
RTVSPost2010Prop54
  1
strokes_ogs.tif
102
RTVSPost2010PropOp54
 70
     0
102
RTVSPost2010Prop55
280
     0
102
RTVSPost2010PropOp55
 70
     0
102
RTVSPost2010Prop56
140
1.0
102
RTVSPost2010PropOp56
 70
     0
102
RTVSPost2010Prop57
140
1.0
102
RTVSPost2010PropOp57
 70
     0
  0
XRECORD
  5
1DA
102
{ACAD_REACTORS
330
1D9
102
}
330
1D9
100
AcDbXrecord
280
     1
102
RTVSPropertyOp0
 70
     1
102
RTVSPropertyOp1
 70
     1
102
RTVSPropertyOp2
 70
     1
102
RTVSPropertyOp3
 70
     1
102
RTVSPropertyOp4
 70
     1
102
RTVSPropertyOp5
 70
     1
102
RTVSPropertyOp6
 70
     1
102
RTVSPropertyOp7
 70
     1
102
RTVSPropertyOp8
 70
     1
102
RTVSPropertyOp9
 70
     1
102
RTVSPropertyOp10
 70
     1
102
RTVSPropertyOp11
 70
     1
102
RTVSPropertyOp12
 70
     1
102
RTVSPropertyOp13
 70
     1
102
RTVSPropertyOp14
 70
     1
102
RTVSPropertyOp15
 70
     1
102
RTVSPropertyOp16
 70
     1
102
RTVSPropertyOp17
 70
     1
102
RTVSPropertyOp18
 70
     1
102
RTVSPropertyOp19
 70
     1
102
RTVSPropertyOp20
 70
     1
102
RTVSPropertyOp21
 70
     1
102
RTVSPropertyOp22
 70
     1
102
RTVSPropertyOp23
 70
     1
102
RTVSPropertyOp24
 70
     1
102
RTVSPropertyOp25
 70
     1
102
RTVSPropertyOp26
 70
     1
102
RTVSPropertyOp27
 70
     1
102
RTVSPropertyOp28
 70
     1
102
RTVSPropertyOp29
 70
     1
102
RTVSPropertyOp30
 70
     1
102
RTVSPropertyOp31
 70
     1
102
RTVSPropertyOp32
 70
     1
102
RTVSPropertyOp33
 70
     1
102
RTVSPropertyOp34
 70
     1
102
RTVSPropertyOp35
 70
     1
102
RTVSPropertyOp36
 70
     1
102
RTVSPropertyOp37
 70
     1
102
RTVSPropertyOp38
 70
     1
102
RTVSPropertyOp39
 70
     1
102
RTVSPropertyOp40
 70
     1
102
RTVSPropertyOp41
 70
     1
102
RTVSPropertyOp42
 70
     1
102
RTVSPropertyOp43
 70
     1
102
RTVSPropertyOp44
 70
     1
102
RTVSPropertyOp45
 70
     1
102
RTVSPropertyOp46
 70
     1
102
RTVSPropertyOp47
 70
     1
102
RTVSPropertyOp48
 70
     1
102
RTVSPropertyOp49
 70
     1
102
RTVSPropertyOp50
 70
     1
102
RTVSPropertyOp51
 70
     0
102
RTVSPropertyOp52
 70
     0
102
RTVSPropertyOp53
 70
     1
102
RTVSPropertyOp54
 70
     1
102
RTVSPropertyOp55
 70
     1
102
RTVSPropertyOp56
 70
     1
102
RTVSPropertyOp57
 70
     1
102
RTVSPost2010Prop28
280
     0
102
RTVSPost2010PropOp28
 70
     1
102
RTVSPost2010Prop29
280
     1
102
RTVSPost2010PropOp29
 70
     1
102
RTVSPost2010Prop30
280
     1
102
RTVSPost2010PropOp30
 70
     1
102
RTVSPost2010Prop31
280
     0
102
RTVSPost2010PropOp31
 70
     1
102
RTVSPost2010Prop32
280
     0
102
RTVSPost2010PropOp32
 70
     1
102
RTVSPost2010Prop33
280
     0
102
RTVSPost2010PropOp33
 70
     1
102
RTVSPost2010Prop34
280
     0
102
RTVSPost2010PropOp34
 70
     1
102
RTVSPost2010Prop35
280
     0
102
RTVSPost2010PropOp35
 70
     1
102
RTVSPost2010Prop36
280
     0
102
RTVSPost2010PropOp36
 70
     1
102
RTVSPost2010Prop37
 90
       50
102
RTVSPost2010PropOp37
 70
     1
102
RTVSPost2010Prop38
140
0.0
102
RTVSPost2010PropOp38
 70
     1
102
RTVSPost2010Prop39
140
1.0
102
RTVSPost2010PropOp39
 70
     1
102
RTVSPost2010Prop40
 90
        0
102
RTVSPost2010PropOp40
 70
     1
102
RTVSPost2010Prop41ColorIndex
 90
       18
102
RTVSPost2010Prop41ColorRGB
 90
        0
102
RTVSPost2010PropOp41
 70
     1
102
RTVSPost2010Prop42
 90
       50
102
RTVSPost2010PropOp42
 70
     1
102
RTVSPost2010Prop43
 90
        3
102
RTVSPost2010PropOp43
 70
     1
102
RTVSPost2010Prop44ColorIndex
 90
        5
102
RTVSPost2010Prop44ColorRGB
 90
      255
102
RTVSPost2010PropOp44
 70
     1
102
RTVSPost2010Prop45
280
     0
102
RTVSPost2010PropOp45
 70
     1
102
RTVSPost2010Prop46
 90
       50
102
RTVSPost2010PropOp46
 70
     1
102
RTVSPost2010Prop47
 90
       50
102
RTVSPost2010PropOp47
 70
     1
102
RTVSPost2010Prop48
 90
       50
102
RTVSPost2010PropOp48
 70
     1
102
RTVSPost2010Prop49
280
     0
102
RTVSPost2010PropOp49
 70
     1
102
RTVSPost2010Prop50
 90
       50
102
RTVSPost2010PropOp50
 70
     1
102
RTVSPost2010Prop51ColorIndex
 90
      256
102
RTVSPost2010Prop51ColorRGB
 90
-16777216
102
RTVSPost2010PropOp51
 70
     0
102
RTVSPost2010Prop52
140
1.0
102
RTVSPost2010PropOp52
 70
     0
102
RTVSPost2010Prop53
 90
        2
102
RTVSPost2010PropOp53
 70
     1
102
RTVSPost2010Prop54
  1
strokes_ogs.tif
102
RTVSPost2010PropOp54
 70
     1
102
RTVSPost2010Prop55
280
     0
102
RTVSPost2010PropOp55
 70
     1
102
RTVSPost2010Prop56
140
1.0
102
RTVSPost2010PropOp56
 70
     1
102
RTVSPost2010Prop57
140
1.0
102
RTVSPost2010PropOp57
 70
     1
  0
XRECORD
  5
1F8
102
{ACAD_REACTORS
330
1F7
102
}
330
1F7
100
AcDbXrecord
280
     1
102
RTVSPropertyOp0
 70
     1
102
RTVSPropertyOp1
 70
     1
102
RTVSPropertyOp2
 70
     1
102
RTVSPropertyOp3
 70
     1
102
RTVSPropertyOp4
 70
     1
102
RTVSPropertyOp5
 70
     1
102
RTVSPropertyOp6
 70
     1
102
RTVSPropertyOp7
 70
     1
102
RTVSPropertyOp8
 70
     1
102
RTVSPropertyOp9
 70
     1
102
RTVSPropertyOp10
 70
     1
102
RTVSPropertyOp11
 70
     1
102
RTVSPropertyOp12
 70
     1
102
RTVSPropertyOp13
 70
     1
102
RTVSPropertyOp14
 70
     1
102
RTVSPropertyOp15
 70
     1
102
RTVSPropertyOp16
 70
     1
102
RTVSPropertyOp17
 70
     1
102
RTVSPropertyOp18
 70
     1
102
RTVSPropertyOp19
 70
     1
102
RTVSPropertyOp20
 70
     1
102
RTVSPropertyOp21
 70
     1
102
RTVSPropertyOp22
 70
     1
102
RTVSPropertyOp23
 70
     1
102
RTVSPropertyOp24
 70
     1
102
RTVSPropertyOp25
 70
     1
102
RTVSPropertyOp26
 70
     1
102
RTVSPropertyOp27
 70
     1
102
RTVSPropertyOp28
 70
     1
102
RTVSPropertyOp29
 70
     1
102
RTVSPropertyOp30
 70
     1
102
RTVSPropertyOp31
 70
     1
102
RTVSPropertyOp32
 70
     1
102
RTVSPropertyOp33
 70
     1
102
RTVSPropertyOp34
 70
     1
102
RTVSPropertyOp35
 70
     1
102
RTVSPropertyOp36
 70
     1
102
RTVSPropertyOp37
 70
     1
102
RTVSPropertyOp38
 70
     1
102
RTVSPropertyOp39
 70
     1
102
RTVSPropertyOp40
 70
     1
102
RTVSPropertyOp41
 70
     1
102
RTVSPropertyOp42
 70
     1
102
RTVSPropertyOp43
 70
     1
102
RTVSPropertyOp44
 70
     1
102
RTVSPropertyOp45
 70
     1
102
RTVSPropertyOp46
 70
     1
102
RTVSPropertyOp47
 70
     1
102
RTVSPropertyOp48
 70
     1
102
RTVSPropertyOp49
 70
     1
102
RTVSPropertyOp50
 70
     1
102
RTVSPropertyOp51
 70
     0
102
RTVSPropertyOp52
 70
     0
102
RTVSPropertyOp53
 70
     1
102
RTVSPropertyOp54
 70
     1
102
RTVSPropertyOp55
 70
     1
102
RTVSPropertyOp56
 70
     1
102
RTVSPropertyOp57
 70
     1
102
RTVSPost2010Prop28
280
     0
102
RTVSPost2010PropOp28
 70
     1
102
RTVSPost2010Prop29
280
     1
102
RTVSPost2010PropOp29
 70
     1
102
RTVSPost2010Prop30
280
     1
102
RTVSPost2010PropOp30
 70
     1
102
RTVSPost2010Prop31
280
     0
102
RTVSPost2010PropOp31
 70
     1
102
RTVSPost2010Prop32
280
     0
102
RTVSPost2010PropOp32
 70
     1
102
RTVSPost2010Prop33
280
     0
102
RTVSPost2010PropOp33
 70
     1
102
RTVSPost2010Prop34
280
     0
102
RTVSPost2010PropOp34
 70
     1
102
RTVSPost2010Prop35
280
     0
102
RTVSPost2010PropOp35
 70
     1
102
RTVSPost2010Prop36
280
     0
102
RTVSPost2010PropOp36
 70
     1
102
RTVSPost2010Prop37
 90
       50
102
RTVSPost2010PropOp37
 70
     1
102
RTVSPost2010Prop38
140
0.0
102
RTVSPost2010PropOp38
 70
     1
102
RTVSPost2010Prop39
140
1.0
102
RTVSPost2010PropOp39
 70
     1
102
RTVSPost2010Prop40
 90
        0
102
RTVSPost2010PropOp40
 70
     1
102
RTVSPost2010Prop41ColorIndex
 90
       18
102
RTVSPost2010Prop41ColorRGB
 90
        0
102
RTVSPost2010PropOp41
 70
     1
102
RTVSPost2010Prop42
 90
       50
102
RTVSPost2010PropOp42
 70
     1
102
RTVSPost2010Prop43
 90
        3
102
RTVSPost2010PropOp43
 70
     1
102
RTVSPost2010Prop44ColorIndex
 90
        5
102
RTVSPost2010Prop44ColorRGB
 90
      255
102
RTVSPost2010PropOp44
 70
     1
102
RTVSPost2010Prop45
280
     0
102
RTVSPost2010PropOp45
 70
     1
102
RTVSPost2010Prop46
 90
       50
102
RTVSPost2010PropOp46
 70
     1
102
RTVSPost2010Prop47
 90
       50
102
RTVSPost2010PropOp47
 70
     1
102
RTVSPost2010Prop48
 90
       50
102
RTVSPost2010PropOp48
 70
     1
102
RTVSPost2010Prop49
280
     0
102
RTVSPost2010PropOp49
 70
     1
102
RTVSPost2010Prop50
 90
       50
102
RTVSPost2010PropOp50
 70
     1
102
RTVSPost2010Prop51ColorIndex
 90
      256
102
RTVSPost2010Prop51ColorRGB
 90
-16777216
102
RTVSPost2010PropOp51
 70
     0
102
RTVSPost2010Prop52
140
1.0
102
RTVSPost2010PropOp52
 70
     0
102
RTVSPost2010Prop53
 90
        2
102
RTVSPost2010PropOp53
 70
     1
102
RTVSPost2010Prop54
  1
strokes_ogs.tif
102
RTVSPost2010PropOp54
 70
     1
102
RTVSPost2010Prop55
280
     0
102
RTVSPost2010PropOp55
 70
     1
102
RTVSPost2010Prop56
140
1.0
102
RTVSPost2010PropOp56
 70
     1
102
RTVSPost2010Prop57
140
1.0
102
RTVSPost2010PropOp57
 70
     1
  0
XRECORD
  5
1F6
102
{ACAD_REACTORS
330
1F5
102
}
330
1F5
100
AcDbXrecord
280
     1
102
RTVSPropertyOp0
 70
     1
102
RTVSPropertyOp1
 70
     1
102
RTVSPropertyOp2
 70
     1
102
RTVSPropertyOp3
 70
     1
102
RTVSPropertyOp4
 70
     1
102
RTVSPropertyOp5
 70
     1
102
RTVSPropertyOp6
 70
     1
102
RTVSPropertyOp7
 70
     1
102
RTVSPropertyOp8
 70
     1
102
RTVSPropertyOp9
 70
     1
102
RTVSPropertyOp10
 70
     1
102
RTVSPropertyOp11
 70
     1
102
RTVSPropertyOp12
 70
     1
102
RTVSPropertyOp13
 70
     1
102
RTVSPropertyOp14
 70
     1
102
RTVSPropertyOp15
 70
     1
102
RTVSPropertyOp16
 70
     1
102
RTVSPropertyOp17
 70
     1
102
RTVSPropertyOp18
 70
     1
102
RTVSPropertyOp19
 70
     1
102
RTVSPropertyOp20
 70
     1
102
RTVSPropertyOp21
 70
     1
102
RTVSPropertyOp22
 70
     1
102
RTVSPropertyOp23
 70
     1
102
RTVSPropertyOp24
 70
     1
102
RTVSPropertyOp25
 70
     1
102
RTVSPropertyOp26
 70
     1
102
RTVSPropertyOp27
 70
     1
102
RTVSPropertyOp28
 70
     1
102
RTVSPropertyOp29
 70
     1
102
RTVSPropertyOp30
 70
     1
102
RTVSPropertyOp31
 70
     1
102
RTVSPropertyOp32
 70
     1
102
RTVSPropertyOp33
 70
     1
102
RTVSPropertyOp34
 70
     1
102
RTVSPropertyOp35
 70
     1
102
RTVSPropertyOp36
 70
     1
102
RTVSPropertyOp37
 70
     1
102
RTVSPropertyOp38
 70
     1
102
RTVSPropertyOp39
 70
     1
102
RTVSPropertyOp40
 70
     1
102
RTVSPropertyOp41
 70
     1
102
RTVSPropertyOp42
 70
     1
102
RTVSPropertyOp43
 70
     1
102
RTVSPropertyOp44
 70
     1
102
RTVSPropertyOp45
 70
     1
102
RTVSPropertyOp46
 70
     1
102
RTVSPropertyOp47
 70
     1
102
RTVSPropertyOp48
 70
     1
102
RTVSPropertyOp49
 70
     1
102
RTVSPropertyOp50
 70
     1
102
RTVSPropertyOp51
 70
     0
102
RTVSPropertyOp52
 70
     0
102
RTVSPropertyOp53
 70
     1
102
RTVSPropertyOp54
 70
     1
102
RTVSPropertyOp55
 70
     1
102
RTVSPropertyOp56
 70
     1
102
RTVSPropertyOp57
 70
     1
102
RTVSPost2010Prop28
280
     0
102
RTVSPost2010PropOp28
 70
     1
102
RTVSPost2010Prop29
280
     1
102
RTVSPost2010PropOp29
 70
     1
102
RTVSPost2010Prop30
280
     1
102
RTVSPost2010PropOp30
 70
     1
102
RTVSPost2010Prop31
280
     0
102
RTVSPost2010PropOp31
 70
     1
102
RTVSPost2010Prop32
280
     0
102
RTVSPost2010PropOp32
 70
     1
102
RTVSPost2010Prop33
280
     0
102
RTVSPost2010PropOp33
 70
     1
102
RTVSPost2010Prop34
280
     0
102
RTVSPost2010PropOp34
 70
     1
102
RTVSPost2010Prop35
280
     0
102
RTVSPost2010PropOp35
 70
     1
102
RTVSPost2010Prop36
280
     0
102
RTVSPost2010PropOp36
 70
     1
102
RTVSPost2010Prop37
 90
       50
102
RTVSPost2010PropOp37
 70
     1
102
RTVSPost2010Prop38
140
0.0
102
RTVSPost2010PropOp38
 70
     1
102
RTVSPost2010Prop39
140
1.0
102
RTVSPost2010PropOp39
 70
     1
102
RTVSPost2010Prop40
 90
        0
102
RTVSPost2010PropOp40
 70
     1
102
RTVSPost2010Prop41ColorIndex
 90
       18
102
RTVSPost2010Prop41ColorRGB
 90
        0
102
RTVSPost2010PropOp41
 70
     1
102
RTVSPost2010Prop42
 90
       50
102
RTVSPost2010PropOp42
 70
     1
102
RTVSPost2010Prop43
 90
        3
102
RTVSPost2010PropOp43
 70
     1
102
RTVSPost2010Prop44ColorIndex
 90
        5
102
RTVSPost2010Prop44ColorRGB
 90
      255
102
RTVSPost2010PropOp44
 70
     1
102
RTVSPost2010Prop45
280
     0
102
RTVSPost2010PropOp45
 70
     1
102
RTVSPost2010Prop46
 90
       50
102
RTVSPost2010PropOp46
 70
     1
102
RTVSPost2010Prop47
 90
       50
102
RTVSPost2010PropOp47
 70
     1
102
RTVSPost2010Prop48
 90
       50
102
RTVSPost2010PropOp48
 70
     1
102
RTVSPost2010Prop49
280
     0
102
RTVSPost2010PropOp49
 70
     1
102
RTVSPost2010Prop50
 90
       50
102
RTVSPost2010PropOp50
 70
     1
102
RTVSPost2010Prop51ColorIndex
 90
      256
102
RTVSPost2010Prop51ColorRGB
 90
-16777216
102
RTVSPost2010PropOp51
 70
     0
102
RTVSPost2010Prop52
140
1.0
102
RTVSPost2010PropOp52
 70
     0
102
RTVSPost2010Prop53
 90
        2
102
RTVSPost2010PropOp53
 70
     1
102
RTVSPost2010Prop54
  1
strokes_ogs.tif
102
RTVSPost2010PropOp54
 70
     1
102
RTVSPost2010Prop55
280
     0
102
RTVSPost2010PropOp55
 70
     1
102
RTVSPost2010Prop56
140
1.0
102
RTVSPost2010PropOp56
 70
     1
102
RTVSPost2010Prop57
140
1.0
102
RTVSPost2010PropOp57
 70
     1
  0
XRECORD
  5
1F0
102
{ACAD_REACTORS
330
1EF
102
}
330
1EF
100
AcDbXrecord
280
     1
102
RTVSPropertyOp0
 70
     1
102
RTVSPropertyOp1
 70
     1
102
RTVSPropertyOp2
 70
     1
102
RTVSPropertyOp3
 70
     1
102
RTVSPropertyOp4
 70
     1
102
RTVSPropertyOp5
 70
     1
102
RTVSPropertyOp6
 70
     1
102
RTVSPropertyOp7
 70
     1
102
RTVSPropertyOp8
 70
     1
102
RTVSPropertyOp9
 70
     1
102
RTVSPropertyOp10
 70
     1
102
RTVSPropertyOp11
 70
     1
102
RTVSPropertyOp12
 70
     1
102
RTVSPropertyOp13
 70
     1
102
RTVSPropertyOp14
 70
     1
102
RTVSPropertyOp15
 70
     1
102
RTVSPropertyOp16
 70
     1
102
RTVSPropertyOp17
 70
     1
102
RTVSPropertyOp18
 70
     1
102
RTVSPropertyOp19
 70
     1
102
RTVSPropertyOp20
 70
     1
102
RTVSPropertyOp21
 70
     1
102
RTVSPropertyOp22
 70
     1
102
RTVSPropertyOp23
 70
     1
102
RTVSPropertyOp24
 70
     1
102
RTVSPropertyOp25
 70
     1
102
RTVSPropertyOp26
 70
     1
102
RTVSPropertyOp27
 70
     1
102
RTVSPropertyOp28
 70
     1
102
RTVSPropertyOp29
 70
     1
102
RTVSPropertyOp30
 70
     1
102
RTVSPropertyOp31
 70
     1
102
RTVSPropertyOp32
 70
     1
102
RTVSPropertyOp33
 70
     1
102
RTVSPropertyOp34
 70
     1
102
RTVSPropertyOp35
 70
     1
102
RTVSPropertyOp36
 70
     1
102
RTVSPropertyOp37
 70
     1
102
RTVSPropertyOp38
 70
     1
102
RTVSPropertyOp39
 70
     1
102
RTVSPropertyOp40
 70
     1
102
RTVSPropertyOp41
 70
     1
102
RTVSPropertyOp42
 70
     1
102
RTVSPropertyOp43
 70
     1
102
RTVSPropertyOp44
 70
     1
102
RTVSPropertyOp45
 70
     1
102
RTVSPropertyOp46
 70
     1
102
RTVSPropertyOp47
 70
     1
102
RTVSPropertyOp48
 70
     1
102
RTVSPropertyOp49
 70
     1
102
RTVSPropertyOp50
 70
     1
102
RTVSPropertyOp51
 70
     0
102
RTVSPropertyOp52
 70
     0
102
RTVSPropertyOp53
 70
     1
102
RTVSPropertyOp54
 70
     1
102
RTVSPropertyOp55
 70
     1
102
RTVSPropertyOp56
 70
     1
102
RTVSPropertyOp57
 70
     1
102
RTVSPost2010Prop28
280
     0
102
RTVSPost2010PropOp28
 70
     1
102
RTVSPost2010Prop29
280
     1
102
RTVSPost2010PropOp29
 70
     1
102
RTVSPost2010Prop30
280
     1
102
RTVSPost2010PropOp30
 70
     1
102
RTVSPost2010Prop31
280
     0
102
RTVSPost2010PropOp31
 70
     1
102
RTVSPost2010Prop32
280
     0
102
RTVSPost2010PropOp32
 70
     1
102
RTVSPost2010Prop33
280
     0
102
RTVSPost2010PropOp33
 70
     1
102
RTVSPost2010Prop34
280
     0
102
RTVSPost2010PropOp34
 70
     1
102
RTVSPost2010Prop35
280
     0
102
RTVSPost2010PropOp35
 70
     1
102
RTVSPost2010Prop36
280
     0
102
RTVSPost2010PropOp36
 70
     1
102
RTVSPost2010Prop37
 90
       50
102
RTVSPost2010PropOp37
 70
     1
102
RTVSPost2010Prop38
140
0.0
102
RTVSPost2010PropOp38
 70
     1
102
RTVSPost2010Prop39
140
1.0
102
RTVSPost2010PropOp39
 70
     1
102
RTVSPost2010Prop40
 90
        0
102
RTVSPost2010PropOp40
 70
     1
102
RTVSPost2010Prop41ColorIndex
 90
       18
102
RTVSPost2010Prop41ColorRGB
 90
        0
102
RTVSPost2010PropOp41
 70
     1
102
RTVSPost2010Prop42
 90
       50
102
RTVSPost2010PropOp42
 70
     1
102
RTVSPost2010Prop43
 90
        3
102
RTVSPost2010PropOp43
 70
     1
102
RTVSPost2010Prop44ColorIndex
 90
        5
102
RTVSPost2010Prop44ColorRGB
 90
      255
102
RTVSPost2010PropOp44
 70
     1
102
RTVSPost2010Prop45
280
     0
102
RTVSPost2010PropOp45
 70
     1
102
RTVSPost2010Prop46
 90
       50
102
RTVSPost2010PropOp46
 70
     1
102
RTVSPost2010Prop47
 90
       50
102
RTVSPost2010PropOp47
 70
     1
102
RTVSPost2010Prop48
 90
       50
102
RTVSPost2010PropOp48
 70
     1
102
RTVSPost2010Prop49
280
     0
102
RTVSPost2010PropOp49
 70
     1
102
RTVSPost2010Prop50
 90
       50
102
RTVSPost2010PropOp50
 70
     1
102
RTVSPost2010Prop51ColorIndex
 90
      256
102
RTVSPost2010Prop51ColorRGB
 90
-16777216
102
RTVSPost2010PropOp51
 70
     0
102
RTVSPost2010Prop52
140
1.0
102
RTVSPost2010PropOp52
 70
     0
102
RTVSPost2010Prop53
 90
        2
102
RTVSPost2010PropOp53
 70
     1
102
RTVSPost2010Prop54
  1
strokes_ogs.tif
102
RTVSPost2010PropOp54
 70
     1
102
RTVSPost2010Prop55
280
     0
102
RTVSPost2010PropOp55
 70
     1
102
RTVSPost2010Prop56
140
1.0
102
RTVSPost2010PropOp56
 70
     1
102
RTVSPost2010Prop57
140
1.0
102
RTVSPost2010PropOp57
 70
     1
  0
XRECORD
  5
1F2
102
{ACAD_REACTORS
330
1F1
102
}
330
1F1
100
AcDbXrecord
280
     1
102
RTVSPropertyOp0
 70
     1
102
RTVSPropertyOp1
 70
     1
102
RTVSPropertyOp2
 70
     1
102
RTVSPropertyOp3
 70
     1
102
RTVSPropertyOp4
 70
     1
102
RTVSPropertyOp5
 70
     1
102
RTVSPropertyOp6
 70
     1
102
RTVSPropertyOp7
 70
     1
102
RTVSPropertyOp8
 70
     1
102
RTVSPropertyOp9
 70
     1
102
RTVSPropertyOp10
 70
     1
102
RTVSPropertyOp11
 70
     1
102
RTVSPropertyOp12
 70
     1
102
RTVSPropertyOp13
 70
     1
102
RTVSPropertyOp14
 70
     1
102
RTVSPropertyOp15
 70
     1
102
RTVSPropertyOp16
 70
     1
102
RTVSPropertyOp17
 70
     1
102
RTVSPropertyOp18
 70
     1
102
RTVSPropertyOp19
 70
     1
102
RTVSPropertyOp20
 70
     1
102
RTVSPropertyOp21
 70
     1
102
RTVSPropertyOp22
 70
     1
102
RTVSPropertyOp23
 70
     1
102
RTVSPropertyOp24
 70
     1
102
RTVSPropertyOp25
 70
     1
102
RTVSPropertyOp26
 70
     1
102
RTVSPropertyOp27
 70
     1
102
RTVSPropertyOp28
 70
     1
102
RTVSPropertyOp29
 70
     1
102
RTVSPropertyOp30
 70
     1
102
RTVSPropertyOp31
 70
     1
102
RTVSPropertyOp32
 70
     1
102
RTVSPropertyOp33
 70
     1
102
RTVSPropertyOp34
 70
     1
102
RTVSPropertyOp35
 70
     1
102
RTVSPropertyOp36
 70
     1
102
RTVSPropertyOp37
 70
     1
102
RTVSPropertyOp38
 70
     1
102
RTVSPropertyOp39
 70
     1
102
RTVSPropertyOp40
 70
     1
102
RTVSPropertyOp41
 70
     1
102
RTVSPropertyOp42
 70
     1
102
RTVSPropertyOp43
 70
     1
102
RTVSPropertyOp44
 70
     1
102
RTVSPropertyOp45
 70
     1
102
RTVSPropertyOp46
 70
     1
102
RTVSPropertyOp47
 70
     1
102
RTVSPropertyOp48
 70
     1
102
RTVSPropertyOp49
 70
     1
102
RTVSPropertyOp50
 70
     1
102
RTVSPropertyOp51
 70
     0
102
RTVSPropertyOp52
 70
     0
102
RTVSPropertyOp53
 70
     1
102
RTVSPropertyOp54
 70
     1
102
RTVSPropertyOp55
 70
     1
102
RTVSPropertyOp56
 70
     1
102
RTVSPropertyOp57
 70
     1
102
RTVSPost2010Prop28
280
     0
102
RTVSPost2010PropOp28
 70
     1
102
RTVSPost2010Prop29
280
     1
102
RTVSPost2010PropOp29
 70
     1
102
RTVSPost2010Prop30
280
     1
102
RTVSPost2010PropOp30
 70
     1
102
RTVSPost2010Prop31
280
     0
102
RTVSPost2010PropOp31
 70
     1
102
RTVSPost2010Prop32
280
     0
102
RTVSPost2010PropOp32
 70
     1
102
RTVSPost2010Prop33
280
     0
102
RTVSPost2010PropOp33
 70
     1
102
RTVSPost2010Prop34
280
     0
102
RTVSPost2010PropOp34
 70
     1
102
RTVSPost2010Prop35
280
     0
102
RTVSPost2010PropOp35
 70
     1
102
RTVSPost2010Prop36
280
     0
102
RTVSPost2010PropOp36
 70
     1
102
RTVSPost2010Prop37
 90
       50
102
RTVSPost2010PropOp37
 70
     1
102
RTVSPost2010Prop38
140
0.0
102
RTVSPost2010PropOp38
 70
     1
102
RTVSPost2010Prop39
140
1.0
102
RTVSPost2010PropOp39
 70
     1
102
RTVSPost2010Prop40
 90
        0
102
RTVSPost2010PropOp40
 70
     1
102
RTVSPost2010Prop41ColorIndex
 90
       18
102
RTVSPost2010Prop41ColorRGB
 90
        0
102
RTVSPost2010PropOp41
 70
     1
102
RTVSPost2010Prop42
 90
       50
102
RTVSPost2010PropOp42
 70
     1
102
RTVSPost2010Prop43
 90
        3
102
RTVSPost2010PropOp43
 70
     1
102
RTVSPost2010Prop44ColorIndex
 90
        5
102
RTVSPost2010Prop44ColorRGB
 90
      255
102
RTVSPost2010PropOp44
 70
     1
102
RTVSPost2010Prop45
280
     0
102
RTVSPost2010PropOp45
 70
     1
102
RTVSPost2010Prop46
 90
       50
102
RTVSPost2010PropOp46
 70
     1
102
RTVSPost2010Prop47
 90
       50
102
RTVSPost2010PropOp47
 70
     1
102
RTVSPost2010Prop48
 90
       50
102
RTVSPost2010PropOp48
 70
     1
102
RTVSPost2010Prop49
280
     0
102
RTVSPost2010PropOp49
 70
     1
102
RTVSPost2010Prop50
 90
       50
102
RTVSPost2010PropOp50
 70
     1
102
RTVSPost2010Prop51ColorIndex
 90
      256
102
RTVSPost2010Prop51ColorRGB
 90
-16777216
102
RTVSPost2010PropOp51
 70
     0
102
RTVSPost2010Prop52
140
1.0
102
RTVSPost2010PropOp52
 70
     0
102
RTVSPost2010Prop53
 90
        2
102
RTVSPost2010PropOp53
 70
     1
102
RTVSPost2010Prop54
  1
strokes_ogs.tif
102
RTVSPost2010PropOp54
 70
     1
102
RTVSPost2010Prop55
280
     0
102
RTVSPost2010PropOp55
 70
     1
102
RTVSPost2010Prop56
140
1.0
102
RTVSPost2010PropOp56
 70
     1
102
RTVSPost2010Prop57
140
1.0
102
RTVSPost2010PropOp57
 70
     1
  0
XRECORD
  5
1E2
102
{ACAD_REACTORS
330
1E1
102
}
330
1E1
100
AcDbXrecord
280
     1
102
RTVSPropertyOp0
 70
     1
102
RTVSPropertyOp1
 70
     1
102
RTVSPropertyOp2
 70
     1
102
RTVSPropertyOp3
 70
     1
102
RTVSPropertyOp4
 70
     1
102
RTVSPropertyOp5
 70
     1
102
RTVSPropertyOp6
 70
     1
102
RTVSPropertyOp7
 70
     1
102
RTVSPropertyOp8
 70
     1
102
RTVSPropertyOp9
 70
     1
102
RTVSPropertyOp10
 70
     1
102
RTVSPropertyOp11
 70
     1
102
RTVSPropertyOp12
 70
     1
102
RTVSPropertyOp13
 70
     1
102
RTVSPropertyOp14
 70
     1
102
RTVSPropertyOp15
 70
     1
102
RTVSPropertyOp16
 70
     1
102
RTVSPropertyOp17
 70
     1
102
RTVSPropertyOp18
 70
     1
102
RTVSPropertyOp19
 70
     1
102
RTVSPropertyOp20
 70
     1
102
RTVSPropertyOp21
 70
     1
102
RTVSPropertyOp22
 70
     1
102
RTVSPropertyOp23
 70
     1
102
RTVSPropertyOp24
 70
     1
102
RTVSPropertyOp25
 70
     1
102
RTVSPropertyOp26
 70
     1
102
RTVSPropertyOp27
 70
     1
102
RTVSPropertyOp28
 70
     1
102
RTVSPropertyOp29
 70
     1
102
RTVSPropertyOp30
 70
     1
102
RTVSPropertyOp31
 70
     1
102
RTVSPropertyOp32
 70
     1
102
RTVSPropertyOp33
 70
     1
102
RTVSPropertyOp34
 70
     1
102
RTVSPropertyOp35
 70
     1
102
RTVSPropertyOp36
 70
     1
102
RTVSPropertyOp37
 70
     1
102
RTVSPropertyOp38
 70
     1
102
RTVSPropertyOp39
 70
     1
102
RTVSPropertyOp40
 70
     1
102
RTVSPropertyOp41
 70
     1
102
RTVSPropertyOp42
 70
     1
102
RTVSPropertyOp43
 70
     1
102
RTVSPropertyOp44
 70
     1
102
RTVSPropertyOp45
 70
     1
102
RTVSPropertyOp46
 70
     1
102
RTVSPropertyOp47
 70
     1
102
RTVSPropertyOp48
 70
     1
102
RTVSPropertyOp49
 70
     1
102
RTVSPropertyOp50
 70
     1
102
RTVSPropertyOp51
 70
     0
102
RTVSPropertyOp52
 70
     0
102
RTVSPropertyOp53
 70
     1
102
RTVSPropertyOp54
 70
     1
102
RTVSPropertyOp55
 70
     1
102
RTVSPropertyOp56
 70
     1
102
RTVSPropertyOp57
 70
     1
102
RTVSPost2010Prop28
280
     0
102
RTVSPost2010PropOp28
 70
     1
102
RTVSPost2010Prop29
280
     1
102
RTVSPost2010PropOp29
 70
     1
102
RTVSPost2010Prop30
280
     1
102
RTVSPost2010PropOp30
 70
     1
102
RTVSPost2010Prop31
280
     0
102
RTVSPost2010PropOp31
 70
     1
102
RTVSPost2010Prop32
280
     0
102
RTVSPost2010PropOp32
 70
     1
102
RTVSPost2010Prop33
280
     0
102
RTVSPost2010PropOp33
 70
     1
102
RTVSPost2010Prop34
280
     0
102
RTVSPost2010PropOp34
 70
     1
102
RTVSPost2010Prop35
280
     0
102
RTVSPost2010PropOp35
 70
     1
102
RTVSPost2010Prop36
280
     0
102
RTVSPost2010PropOp36
 70
     1
102
RTVSPost2010Prop37
 90
       50
102
RTVSPost2010PropOp37
 70
     1
102
RTVSPost2010Prop38
140
0.0
102
RTVSPost2010PropOp38
 70
     1
102
RTVSPost2010Prop39
140
1.0
102
RTVSPost2010PropOp39
 70
     1
102
RTVSPost2010Prop40
 90
        0
102
RTVSPost2010PropOp40
 70
     1
102
RTVSPost2010Prop41ColorIndex
 90
       18
102
RTVSPost2010Prop41ColorRGB
 90
        0
102
RTVSPost2010PropOp41
 70
     1
102
RTVSPost2010Prop42
 90
       50
102
RTVSPost2010PropOp42
 70
     1
102
RTVSPost2010Prop43
 90
        3
102
RTVSPost2010PropOp43
 70
     1
102
RTVSPost2010Prop44ColorIndex
 90
        5
102
RTVSPost2010Prop44ColorRGB
 90
      255
102
RTVSPost2010PropOp44
 70
     1
102
RTVSPost2010Prop45
280
     0
102
RTVSPost2010PropOp45
 70
     1
102
RTVSPost2010Prop46
 90
       50
102
RTVSPost2010PropOp46
 70
     1
102
RTVSPost2010Prop47
 90
       50
102
RTVSPost2010PropOp47
 70
     1
102
RTVSPost2010Prop48
 90
       50
102
RTVSPost2010PropOp48
 70
     1
102
RTVSPost2010Prop49
280
     0
102
RTVSPost2010PropOp49
 70
     1
102
RTVSPost2010Prop50
 90
       50
102
RTVSPost2010PropOp50
 70
     1
102
RTVSPost2010Prop51ColorIndex
 90
      256
102
RTVSPost2010Prop51ColorRGB
 90
-16777216
102
RTVSPost2010PropOp51
 70
     0
102
RTVSPost2010Prop52
140
1.0
102
RTVSPost2010PropOp52
 70
     0
102
RTVSPost2010Prop53
 90
        2
102
RTVSPost2010PropOp53
 70
     1
102
RTVSPost2010Prop54
  1
strokes_ogs.tif
102
RTVSPost2010PropOp54
 70
     1
102
RTVSPost2010Prop55
280
     0
102
RTVSPost2010PropOp55
 70
     1
102
RTVSPost2010Prop56
140
1.0
102
RTVSPost2010PropOp56
 70
     1
102
RTVSPost2010Prop57
140
1.0
102
RTVSPost2010PropOp57
 70
     1
  0
XRECORD
  5
1D4
102
{ACAD_REACTORS
330
1D3
102
}
330
1D3
100
AcDbXrecord
280
     1
102
RTVSPropertyOp0
 70
     1
102
RTVSPropertyOp1
 70
     1
102
RTVSPropertyOp2
 70
     1
102
RTVSPropertyOp3
 70
     1
102
RTVSPropertyOp4
 70
     1
102
RTVSPropertyOp5
 70
     1
102
RTVSPropertyOp6
 70
     1
102
RTVSPropertyOp7
 70
     1
102
RTVSPropertyOp8
 70
     1
102
RTVSPropertyOp9
 70
     1
102
RTVSPropertyOp10
 70
     1
102
RTVSPropertyOp11
 70
     1
102
RTVSPropertyOp12
 70
     1
102
RTVSPropertyOp13
 70
     1
102
RTVSPropertyOp14
 70
     1
102
RTVSPropertyOp15
 70
     1
102
RTVSPropertyOp16
 70
     1
102
RTVSPropertyOp17
 70
     1
102
RTVSPropertyOp18
 70
     1
102
RTVSPropertyOp19
 70
     1
102
RTVSPropertyOp20
 70
     1
102
RTVSPropertyOp21
 70
     1
102
RTVSPropertyOp22
 70
     1
102
RTVSPropertyOp23
 70
     1
102
RTVSPropertyOp24
 70
     1
102
RTVSPropertyOp25
 70
     1
102
RTVSPropertyOp26
 70
     1
102
RTVSPropertyOp27
 70
     1
102
RTVSPropertyOp28
 70
     1
102
RTVSPropertyOp29
 70
     1
102
RTVSPropertyOp30
 70
     1
102
RTVSPropertyOp31
 70
     1
102
RTVSPropertyOp32
 70
     1
102
RTVSPropertyOp33
 70
     1
102
RTVSPropertyOp34
 70
     1
102
RTVSPropertyOp35
 70
     1
102
RTVSPropertyOp36
 70
     1
102
RTVSPropertyOp37
 70
     1
102
RTVSPropertyOp38
 70
     1
102
RTVSPropertyOp39
 70
     1
102
RTVSPropertyOp40
 70
     1
102
RTVSPropertyOp41
 70
     1
102
RTVSPropertyOp42
 70
     1
102
RTVSPropertyOp43
 70
     1
102
RTVSPropertyOp44
 70
     1
102
RTVSPropertyOp45
 70
     1
102
RTVSPropertyOp46
 70
     1
102
RTVSPropertyOp47
 70
     1
102
RTVSPropertyOp48
 70
     1
102
RTVSPropertyOp49
 70
     1
102
RTVSPropertyOp50
 70
     1
102
RTVSPropertyOp51
 70
     0
102
RTVSPropertyOp52
 70
     0
102
RTVSPropertyOp53
 70
     1
102
RTVSPropertyOp54
 70
     1
102
RTVSPropertyOp55
 70
     1
102
RTVSPropertyOp56
 70
     1
102
RTVSPropertyOp57
 70
     1
102
RTVSPost2010Prop28
280
     0
102
RTVSPost2010PropOp28
 70
     1
102
RTVSPost2010Prop29
280
     1
102
RTVSPost2010PropOp29
 70
     1
102
RTVSPost2010Prop30
280
     1
102
RTVSPost2010PropOp30
 70
     1
102
RTVSPost2010Prop31
280
     0
102
RTVSPost2010PropOp31
 70
     1
102
RTVSPost2010Prop32
280
     0
102
RTVSPost2010PropOp32
 70
     1
102
RTVSPost2010Prop33
280
     0
102
RTVSPost2010PropOp33
 70
     1
102
RTVSPost2010Prop34
280
     0
102
RTVSPost2010PropOp34
 70
     1
102
RTVSPost2010Prop35
280
     0
102
RTVSPost2010PropOp35
 70
     1
102
RTVSPost2010Prop36
280
     0
102
RTVSPost2010PropOp36
 70
     1
102
RTVSPost2010Prop37
 90
       50
102
RTVSPost2010PropOp37
 70
     1
102
RTVSPost2010Prop38
140
0.0
102
RTVSPost2010PropOp38
 70
     1
102
RTVSPost2010Prop39
140
1.0
102
RTVSPost2010PropOp39
 70
     1
102
RTVSPost2010Prop40
 90
        0
102
RTVSPost2010PropOp40
 70
     1
102
RTVSPost2010Prop41ColorIndex
 90
       18
102
RTVSPost2010Prop41ColorRGB
 90
        0
102
RTVSPost2010PropOp41
 70
     1
102
RTVSPost2010Prop42
 90
       50
102
RTVSPost2010PropOp42
 70
     1
102
RTVSPost2010Prop43
 90
        3
102
RTVSPost2010PropOp43
 70
     1
102
RTVSPost2010Prop44ColorIndex
 90
        5
102
RTVSPost2010Prop44ColorRGB
 90
      255
102
RTVSPost2010PropOp44
 70
     1
102
RTVSPost2010Prop45
280
     0
102
RTVSPost2010PropOp45
 70
     1
102
RTVSPost2010Prop46
 90
       50
102
RTVSPost2010PropOp46
 70
     1
102
RTVSPost2010Prop47
 90
       50
102
RTVSPost2010PropOp47
 70
     1
102
RTVSPost2010Prop48
 90
       50
102
RTVSPost2010PropOp48
 70
     1
102
RTVSPost2010Prop49
280
     0
102
RTVSPost2010PropOp49
 70
     1
102
RTVSPost2010Prop50
 90
       50
102
RTVSPost2010PropOp50
 70
     1
102
RTVSPost2010Prop51ColorIndex
 90
      256
102
RTVSPost2010Prop51ColorRGB
 90
-16777216
102
RTVSPost2010PropOp51
 70
     0
102
RTVSPost2010Prop52
140
1.0
102
RTVSPost2010PropOp52
 70
     0
102
RTVSPost2010Prop53
 90
        2
102
RTVSPost2010PropOp53
 70
     1
102
RTVSPost2010Prop54
  1
strokes_ogs.tif
102
RTVSPost2010PropOp54
 70
     1
102
RTVSPost2010Prop55
280
     0
102
RTVSPost2010PropOp55
 70
     1
102
RTVSPost2010Prop56
140
1.0
102
RTVSPost2010PropOp56
 70
     1
102
RTVSPost2010Prop57
140
1.0
102
RTVSPost2010PropOp57
 70
     1
  0
XRECORD
  5
1F4
102
{ACAD_REACTORS
330
1F3
102
}
330
1F3
100
AcDbXrecord
280
     1
102
RTVSPropertyOp0
 70
     1
102
RTVSPropertyOp1
 70
     1
102
RTVSPropertyOp2
 70
     1
102
RTVSPropertyOp3
 70
     1
102
RTVSPropertyOp4
 70
     1
102
RTVSPropertyOp5
 70
     1
102
RTVSPropertyOp6
 70
     1
102
RTVSPropertyOp7
 70
     1
102
RTVSPropertyOp8
 70
     1
102
RTVSPropertyOp9
 70
     1
102
RTVSPropertyOp10
 70
     1
102
RTVSPropertyOp11
 70
     1
102
RTVSPropertyOp12
 70
     1
102
RTVSPropertyOp13
 70
     1
102
RTVSPropertyOp14
 70
     1
102
RTVSPropertyOp15
 70
     1
102
RTVSPropertyOp16
 70
     1
102
RTVSPropertyOp17
 70
     1
102
RTVSPropertyOp18
 70
     1
102
RTVSPropertyOp19
 70
     1
102
RTVSPropertyOp20
 70
     1
102
RTVSPropertyOp21
 70
     1
102
RTVSPropertyOp22
 70
     1
102
RTVSPropertyOp23
 70
     1
102
RTVSPropertyOp24
 70
     1
102
RTVSPropertyOp25
 70
     1
102
RTVSPropertyOp26
 70
     1
102
RTVSPropertyOp27
 70
     1
102
RTVSPropertyOp28
 70
     1
102
RTVSPropertyOp29
 70
     1
102
RTVSPropertyOp30
 70
     1
102
RTVSPropertyOp31
 70
     1
102
RTVSPropertyOp32
 70
     1
102
RTVSPropertyOp33
 70
     1
102
RTVSPropertyOp34
 70
     1
102
RTVSPropertyOp35
 70
     1
102
RTVSPropertyOp36
 70
     1
102
RTVSPropertyOp37
 70
     1
102
RTVSPropertyOp38
 70
     1
102
RTVSPropertyOp39
 70
     1
102
RTVSPropertyOp40
 70
     1
102
RTVSPropertyOp41
 70
     1
102
RTVSPropertyOp42
 70
     1
102
RTVSPropertyOp43
 70
     1
102
RTVSPropertyOp44
 70
     1
102
RTVSPropertyOp45
 70
     1
102
RTVSPropertyOp46
 70
     1
102
RTVSPropertyOp47
 70
     1
102
RTVSPropertyOp48
 70
     1
102
RTVSPropertyOp49
 70
     1
102
RTVSPropertyOp50
 70
     1
102
RTVSPropertyOp51
 70
     0
102
RTVSPropertyOp52
 70
     0
102
RTVSPropertyOp53
 70
     1
102
RTVSPropertyOp54
 70
     1
102
RTVSPropertyOp55
 70
     1
102
RTVSPropertyOp56
 70
     1
102
RTVSPropertyOp57
 70
     1
102
RTVSPost2010Prop28
280
     0
102
RTVSPost2010PropOp28
 70
     1
102
RTVSPost2010Prop29
280
     1
102
RTVSPost2010PropOp29
 70
     1
102
RTVSPost2010Prop30
280
     1
102
RTVSPost2010PropOp30
 70
     1
102
RTVSPost2010Prop31
280
     0
102
RTVSPost2010PropOp31
 70
     1
102
RTVSPost2010Prop32
280
     0
102
RTVSPost2010PropOp32
 70
     1
102
RTVSPost2010Prop33
280
     0
102
RTVSPost2010PropOp33
 70
     1
102
RTVSPost2010Prop34
280
     0
102
RTVSPost2010PropOp34
 70
     1
102
RTVSPost2010Prop35
280
     0
102
RTVSPost2010PropOp35
 70
     1
102
RTVSPost2010Prop36
280
     0
102
RTVSPost2010PropOp36
 70
     1
102
RTVSPost2010Prop37
 90
       50
102
RTVSPost2010PropOp37
 70
     1
102
RTVSPost2010Prop38
140
0.0
102
RTVSPost2010PropOp38
 70
     1
102
RTVSPost2010Prop39
140
1.0
102
RTVSPost2010PropOp39
 70
     1
102
RTVSPost2010Prop40
 90
        0
102
RTVSPost2010PropOp40
 70
     1
102
RTVSPost2010Prop41ColorIndex
 90
       18
102
RTVSPost2010Prop41ColorRGB
 90
        0
102
RTVSPost2010PropOp41
 70
     1
102
RTVSPost2010Prop42
 90
       50
102
RTVSPost2010PropOp42
 70
     1
102
RTVSPost2010Prop43
 90
        3
102
RTVSPost2010PropOp43
 70
     1
102
RTVSPost2010Prop44ColorIndex
 90
        5
102
RTVSPost2010Prop44ColorRGB
 90
      255
102
RTVSPost2010PropOp44
 70
     1
102
RTVSPost2010Prop45
280
     0
102
RTVSPost2010PropOp45
 70
     1
102
RTVSPost2010Prop46
 90
       50
102
RTVSPost2010PropOp46
 70
     1
102
RTVSPost2010Prop47
 90
       50
102
RTVSPost2010PropOp47
 70
     1
102
RTVSPost2010Prop48
 90
       50
102
RTVSPost2010PropOp48
 70
     1
102
RTVSPost2010Prop49
280
     0
102
RTVSPost2010PropOp49
 70
     1
102
RTVSPost2010Prop50
 90
       50
102
RTVSPost2010PropOp50
 70
     1
102
RTVSPost2010Prop51ColorIndex
 90
      256
102
RTVSPost2010Prop51ColorRGB
 90
-16777216
102
RTVSPost2010PropOp51
 70
     0
102
RTVSPost2010Prop52
140
1.0
102
RTVSPost2010PropOp52
 70
     0
102
RTVSPost2010Prop53
 90
        2
102
RTVSPost2010PropOp53
 70
     1
102
RTVSPost2010Prop54
  1
strokes_ogs.tif
102
RTVSPost2010PropOp54
 70
     1
102
RTVSPost2010Prop55
280
     0
102
RTVSPost2010PropOp55
 70
     1
102
RTVSPost2010Prop56
140
1.0
102
RTVSPost2010PropOp56
 70
     1
102
RTVSPost2010Prop57
140
1.0
102
RTVSPost2010PropOp57
 70
     1
  0
ENDSEC
  0
EOF
